  0
SECTION
  2
HEADER
  9
$ACADVER
  1
AC1009
  9
$INSBASE
 10
0.0
 20
0.0
 30
0.0
  9
$EXTMIN
 10
-80.010985489947416
 20
-131.71201227911089
 30
-0.0015258207003583
  9
$EXTMAX
 10
280.01098716632811
 20
403.5481165140169
 30
0.0000000349246037
  9
$LIMMIN
 10
0.0
 20
0.0
  9
$LIMMAX
 10
0.0
 20
0.0
  9
$ORTHOMODE
 70
     0
  9
$REGENMODE
 70
     1
  9
$FILLMODE
 70
     1
  9
$QTEXTMODE
 70
     0
  9
$MIRRTEXT
 70
     1
  9
$DRAGMODE
 70
     2
  9
$LTSCALE
 40
10.16
  9
$OSMODE
 70
   231
  9
$ATTMODE
 70
     1
  9
$TEXTSIZE
 40
0.0
  9
$TRACEWID
 40
1.0
  9
$TEXTSTYLE
  7
STANDARD
  9
$CLAYER
  8
DATA
  9
$CELTYPE
  6
BYLAYER
  9
$CECOLOR
 62
   256
  9
$DIMSCALE
 40
1.0
  9
$DIMASZ
 40
0.18
  9
$DIMEXO
 40
0.0625
  9
$DIMDLI
 40
0.38
  9
$DIMRND
 40
0.0
  9
$DIMDLE
 40
0.0
  9
$DIMEXE
 40
0.18
  9
$DIMTP
 40
0.0
  9
$DIMTM
 40
0.0
  9
$DIMTXT
 40
0.18
  9
$DIMCEN
 40
0.09
  9
$DIMTSZ
 40
0.0
  9
$DIMTOL
 70
     0
  9
$DIMLIM
 70
     0
  9
$DIMTIH
 70
     1
  9
$DIMTOH
 70
     1
  9
$DIMSE1
 70
     0
  9
$DIMSE2
 70
     0
  9
$DIMTAD
 70
     0
  9
$DIMZIN
 70
     0
  9
$DIMBLK
  1

  9
$DIMASO
 70
     1
  9
$DIMSHO
 70
     1
  9
$DIMPOST
  1

  9
$DIMAPOST
  1

  9
$DIMALT
 70
     0
  9
$DIMALTD
 70
     2
  9
$DIMALTF
 40
25.399999999999999
  9
$DIMLFAC
 40
1.0
  9
$DIMTOFL
 70
     0
  9
$DIMTVP
 40
0.0
  9
$DIMTIX
 70
     0
  9
$DIMSOXD
 70
     0
  9
$DIMSAH
 70
     0
  9
$DIMBLK1
  1

  9
$DIMBLK2
  1

  9
$DIMSTYLE
  2
STANDARD
  9
$DIMCLRD
 70
     0
  9
$DIMCLRE
 70
     0
  9
$DIMCLRT
 70
     0
  9
$DIMTFAC
 40
1.0
  9
$DIMGAP
 40
0.09
  9
$LUNITS
 70
     2
  9
$LUPREC
 70
     4
  9
$SKETCHINC
 40
0.1
  9
$FILLETRAD
 40
0.0
  9
$AUNITS
 70
     0
  9
$AUPREC
 70
     0
  9
$MENU
  1
acad
  9
$ELEVATION
 40
0.0
  9
$PELEVATION
 40
0.0
  9
$THICKNESS
 40
0.0
  9
$LIMCHECK
 70
     0
  9
$BLIPMODE
 70
     0
  9
$CHAMFERA
 40
0.0
  9
$CHAMFERB
 40
0.0
  9
$SKPOLY
 70
     0
  9
$TDCREATE
 40
2455309.5800925931
  9
$TDUPDATE
 40
2455309.5851118281
  9
$TDINDWG
 40
0.0002436111
  9
$TDUSRTIMER
 40
0.0002434259
  9
$USRTIMER
 70
     1
  9
$ANGBASE
 50
0.0
  9
$ANGDIR
 70
     0
  9
$PDMODE
 70
     1
  9
$PDSIZE
 40
-2.0
  9
$PLINEWID
 40
0.0
  9
$COORDS
 70
     0
  9
$SPLFRAME
 70
     0
  9
$SPLINETYPE
 70
     6
  9
$SPLINESEGS
 70
     8
  9
$ATTDIA
 70
     0
  9
$ATTREQ
 70
     1
  9
$HANDLING
 70
     1
  9
$HANDSEED
  5
389
  9
$SURFTAB1
 70
     6
  9
$SURFTAB2
 70
     6
  9
$SURFTYPE
 70
     6
  9
$SURFU
 70
     6
  9
$SURFV
 70
     6
  9
$UCSNAME
  2

  9
$UCSORG
 10
0.0
 20
0.0
 30
0.0
  9
$UCSXDIR
 10
1.0
 20
0.0
 30
0.0
  9
$UCSYDIR
 10
0.0
 20
1.0
 30
0.0
  9
$PUCSNAME
  2

  9
$PUCSORG
 10
0.0
 20
0.0
 30
0.0
  9
$PUCSXDIR
 10
1.0
 20
0.0
 30
0.0
  9
$PUCSYDIR
 10
0.0
 20
1.0
 30
0.0
  9
$USERI1
 70
     0
  9
$USERI2
 70
     0
  9
$USERI3
 70
     0
  9
$USERI4
 70
     0
  9
$USERI5
 70
     0
  9
$USERR1
 40
0.0
  9
$USERR2
 40
0.0
  9
$USERR3
 40
0.0
  9
$USERR4
 40
0.0
  9
$USERR5
 40
0.0
  9
$WORLDVIEW
 70
     1
  9
$SHADEDGE
 70
     3
  9
$SHADEDIF
 70
    70
  9
$TILEMODE
 70
     1
  9
$MAXACTVP
 70
    64
  9
$PLIMCHECK
 70
     0
  9
$PEXTMIN
 10
1.0000000000000000E+020
 20
1.0000000000000000E+020
 30
1.0000000000000000E+020
  9
$PEXTMAX
 10
-1.0000000000000000E+020
 20
-1.0000000000000000E+020
 30
-1.0000000000000000E+020
  9
$PLIMMIN
 10
0.0
 20
0.0
  9
$PLIMMAX
 10
12.0
 20
9.0
  9
$UNITMODE
 70
     0
  9
$VISRETAIN
 70
     0
  9
$PLINEGEN
 70
     1
  9
$PSLTSCALE
 70
     0
  0
ENDSEC
  0
SECTION
  2
TABLES
  0
TABLE
  2
VPORT
 70
     1
  0
VPORT
  2
*ACTIVE
 70
     0
 10
0.0
 20
0.0
 11
1.0
 21
1.0
 12
100.0000008381904
 22
135.91805211745299
 13
0.0
 23
0.0
 14
1.0
 24
1.0
 15
0.0
 25
0.0
 16
0.0
 26
0.0
 36
1.0
 17
0.0
 27
0.0
 37
0.0
 40
539.21038804621367
 41
1.9667487684729059
 42
50.0
 43
0.0
 44
0.0
 50
0.0
 51
0.0
 71
     0
 72
  2000
 73
     1
 74
     1
 75
     0
 76
     0
 77
     0
 78
     0
  0
ENDTAB
  0
TABLE
  2
LTYPE
 70
    11
  0
LTYPE
  2
CONTINUOUS
 70
     0
  3
Solid line
 72
    65
 73
     0
 40
0.0
  0
ENDTAB
  0
TABLE
  2
LAYER
 70
     6
  0
LAYER
  2
0
 70
     0
 62
     7
  6
CONTINUOUS
  0
LAYER
  2
DATA
 70
     0
 62
     7
  6
CONTINUOUS
  0
LAYER
  2
HIBINO-BASE
 70
     0
 62
     7
  6
CONTINUOUS
  0
LAYER
  2
PATTERN_FILL
 70
     0
 62
     7
  6
CONTINUOUS
  0
LAYER
  2
SPEC
 70
     0
 62
     7
  6
CONTINUOUS
  0
LAYER
  2
DIMNSIONS
 70
     0
 62
     7
  6
CONTINUOUS
  0
ENDTAB
  0
TABLE
  2
STYLE
 70
     3
  0
STYLE
  2
STANDARD
 70
     0
 40
0.0
 41
1.0
 50
0.0
 71
     0
 42
0.0
  3
txt
  4
BIGFONT.SHX
  0
ENDTAB
  0
TABLE
  2
VIEW
 70
     0
  0
ENDTAB
  0
TABLE
  2
UCS
 70
     0
  0
ENDTAB
  0
TABLE
  2
APPID
 70
     3
  0
APPID
  2
ACAD
 70
     0
  0
APPID
  2
ACADANNOTATIVE
 70
     0
  0
APPID
  2
ACAD_MLEADERVER
 70
     0
  0
ENDTAB
  0
TABLE
  2
DIMSTYLE
 70
     2
  0
DIMSTYLE
  2
STANDARD
 70
     0
  3

  4

  5

  6

  7

 40
1.0
 41
0.18
 42
0.0625
 43
0.38
 44
0.18
 45
0.0
 46
0.0
 47
0.0
 48
0.0
140
0.18
141
0.09
142
0.0
143
25.399999999999999
144
1.0
145
0.0
146
1.0
147
0.09
 71
     0
 72
     0
 73
     1
 74
     1
 75
     0
 76
     0
 77
     0
 78
     0
170
     0
171
     2
172
     0
173
     0
174
     0
175
     0
176
     0
177
     0
178
     0
  0
ENDTAB
  0
ENDSEC
  0
SECTION
  2
BLOCKS
  0
BLOCK
  8
0
  2
$MODEL_SPACE
 70
     0
 10
0.0
 20
0.0
 30
0.0
  3
$MODEL_SPACE
  1

  0
ENDBLK
  5
327
  8
0
  0
BLOCK
 67
     1
  8
0
  2
$PAPER_SPACE
 70
     0
 10
0.0
 20
0.0
 30
0.0
  3
$PAPER_SPACE
  1

  0
ENDBLK
  5
323
 67
     1
  8
0
  0
ENDSEC
  0
SECTION
  2
ENTITIES
  0
LINE
  5
2D
  8
HIBINO-BASE
  6
CONTINUOUS
 62
     7
 10
-79.999999999999986
 20
403.53181499999999
 30
0.0
 11
279.99999999999989
 21
403.53181499999999
 31
0.0
  0
LINE
  5
2E
  8
HIBINO-BASE
  6
CONTINUOUS
 62
     7
 10
279.99999999999989
 20
-116.46818500000001
 30
0.0
 11
-79.999999999999986
 21
-116.46818500000001
 31
0.0
  0
LINE
  5
2F
  8
HIBINO-BASE
  6
CONTINUOUS
 62
     7
 10
-79.999999999999986
 20
-116.46818500000001
 30
0.0
 11
-79.999999999999986
 21
403.53181499999999
 31
0.0
  0
TEXT
  5
30
  8
HIBINO-BASE
 62
     7
 10
-65.631999999999991
 20
-129.2855405999999
 30
0.0
 40
7.2000883593749991
  1
Hibino Corporation
 41
0.7
 11
-65.631999999999991
 21
-122.0854522406249
 31
0.0
 73
     3
  0
LINE
  5
31
  8
HIBINO-BASE
  6
CONTINUOUS
 62
     7
 10
279.99999999999989
 20
403.53181499999999
 30
0.0
 11
279.99999999999989
 21
-116.46818500000001
 31
0.0
  0
LINE
  5
32
  8
HIBINO-BASE
  6
CONTINUOUS
 62
     7
 10
100.0
 20
-71.468184999999977
 30
0.0
 11
279.99999999999989
 21
-71.468184999999977
 31
0.0
  0
LINE
  5
33
  8
HIBINO-BASE
  6
CONTINUOUS
 62
     7
 10
100.0
 20
-116.46818500000001
 30
0.0
 11
100.0
 21
-71.468184999999977
 31
0.0
  0
TEXT
  5
34
  8
HIBINO-BASE
 62
     7
 10
101.8
 20
-76.485571666666644
 30
0.0
 40
3.2576822916666659
  1
NOTE
 41
0.7
 11
101.8
 21
-73.227889374999975
 31
0.0
 73
     3
  0
LINE
  5
35
  8
HIBINO-BASE
  6
CONTINUOUS
 62
     7
 10
170.0
 20
-116.46818500000001
 30
0.0
 11
170.0
 21
-71.468184999999977
 31
0.0
  0
TEXT
  5
36
  8
HIBINO-BASE
 62
     7
 10
171.7999999999999
 20
-76.485571666666644
 30
0.0
 40
3.2576822916666659
  1
TITLE
 41
0.7
 11
171.7999999999999
 21
-73.227889374999975
 31
0.0
 73
     3
  0
TEXT
  5
37
  8
HIBINO-BASE
 62
     7
 10
200.13677999999999
 20
-129.2855405999999
 30
0.0
 40
7.2000883593749991
  1
ヒビノ株式会社
 41
0.7
 11
200.13677999999999
 21
-122.0854522406249
 31
0.0
 73
     3
  0
LINE
  5
38
  8
HIBINO-BASE
  6
CONTINUOUS
 62
     7
 10
100.0
 20
-96.468184999999963
 30
0.0
 11
279.99999999999989
 21
-96.468184999999963
 31
0.0
  0
TEXT
  5
39
  8
HIBINO-BASE
 62
     7
 10
196.80000000000001
 20
-101.3729316666666
 30
0.0
 40
3.2576822916666659
  1
DRAWN
 41
0.7
 11
196.80000000000001
 21
-98.115249375000005
 31
0.0
 73
     3
  0
TEXT
  5
3A
  8
HIBINO-BASE
 62
     7
 10
146.7999999999999
 20
-101.3729316666666
 30
0.0
 40
3.2576822916666659
  1
DATE
 41
0.7
 11
146.7999999999999
 21
-98.115249375000005
 31
0.0
 73
     3
  0
TEXT
  5
3B
  8
HIBINO-BASE
 62
     7
 10
126.8
 20
-101.3729316666666
 30
0.0
 40
3.2576822916666659
  1
SCALE
 41
0.7
 11
126.8
 21
-98.115249375000005
 31
0.0
 73
     3
  0
TEXT
  5
3C
  8
HIBINO-BASE
 62
     7
 10
171.7999999999999
 20
-101.3729316666666
 30
0.0
 40
3.2576822916666659
  1
DESIGN
 41
0.7
 11
171.7999999999999
 21
-98.115249375000005
 31
0.0
 73
     3
  0
TEXT
  5
3D
  8
HIBINO-BASE
 62
     7
 10
246.7999999999999
 20
-101.3729316666666
 30
0.0
 40
3.2576822916666659
  1
DRAWING NO.
 41
0.7
 11
246.7999999999999
 21
-98.115249375000005
 31
0.0
 73
     3
  0
TEXT
  5
3E
  8
HIBINO-BASE
 62
     7
 10
221.7999999999999
 20
-101.3729316666666
 30
0.0
 40
3.2576822916666659
  1
CHECK
 41
0.7
 11
221.7999999999999
 21
-98.115249375000005
 31
0.0
 73
     3
  0
LINE
  5
3F
  8
HIBINO-BASE
  6
CONTINUOUS
 62
     7
 10
128.74999999999989
 20
-113.96818500000001
 30
0.0
 11
136.25
 21
-106.46818499999991
 31
0.0
  0
TEXT
  5
40
  8
HIBINO-BASE
 62
     7
 10
127.5
 20
-108.68607166666661
 30
0.0
 40
3.2576822916666659
  1
1
 41
0.7
 11
127.5
 21
-105.42838937499999
 31
0.0
 73
     3
  0
LINE
  5
41
  8
HIBINO-BASE
  6
CONTINUOUS
 62
     7
 10
125.0
 20
-116.46818500000001
 30
0.0
 11
125.0
 21
-96.468184999999963
 31
0.0
  0
LINE
  5
42
  8
HIBINO-BASE
  6
CONTINUOUS
 62
     7
 10
145.0
 20
-116.46818500000001
 30
0.0
 11
145.0
 21
-96.468184999999963
 31
0.0
  0
LINE
  5
43
  8
HIBINO-BASE
  6
CONTINUOUS
 62
     7
 10
195.0
 20
-96.468184999999963
 30
0.0
 11
195.0
 21
-116.46818500000001
 31
0.0
  0
LINE
  5
44
  8
HIBINO-BASE
  6
CONTINUOUS
 62
     7
 10
245.0
 20
-96.468184999999963
 30
0.0
 11
245.0
 21
-116.46818500000001
 31
0.0
  0
LINE
  5
45
  8
HIBINO-BASE
  6
CONTINUOUS
 62
     7
 10
220.0
 20
-116.46818500000001
 30
0.0
 11
220.0
 21
-96.468184999999963
 31
0.0
  0
TEXT
  5
46
  8
HIBINO-BASE
 62
     7
 10
146.71307999999999
 20
-110.7408916666666
 30
0.0
 40
3.2576822916666659
  1
'10.04.
 41
0.7
 11
146.71307999999999
 21
-107.483209375
 31
0.0
 73
     3
  0
TEXT
  5
47
  8
HIBINO-BASE
 62
     7
 10
135.0
 20
-112.43607166666661
 30
0.0
 40
3.2576822916666659
  1
2
 41
0.7
 11
135.0
 21
-109.17838937499999
 31
0.0
 73
     3
  0
TEXT
  5
48
  8
HIBINO-BASE
 62
     7
 10
107.76666666666659
 20
-112.51618499999999
 30
0.0
 40
6.5153645833333318
  1
A4
 41
0.7
 11
107.76666666666659
 21
-106.0008204166666
 31
0.0
 73
     3
  0
TEXT
  5
49
  8
HIBINO-BASE
 62
     7
 10
101.9166666666666
 20
-101.707095
 30
0.0
 40
3.2576822916666659
  1
PAPER SIZE
 41
0.7
 11
101.9166666666666
 21
-98.449412708333327
 31
0.0
 73
     3
  0
TEXT
  5
4A
  8
HIBINO-BASE
 62
     7
 10
198.0116200220692
 20
-110.7408916666666
 30
0.0
 40
3.2576822916666659
  1
T.Ootake
 41
0.7
 11
198.0116200220692
 21
-107.4832093749999
 31
0.0
 73
     3
  0
LINE
  5
4B
  8
PATTERN_FILL
  6
CONTINUOUS
 62
     7
 10
3.0556347514764179
 20
229.68640355609571
 30
0.0
 11
12.67370313405012
 21
213.0274204468063
 31
0.0
  0
LINE
  5
4C
  8
PATTERN_FILL
  6
CONTINUOUS
 62
     7
 10
3.078800593028105
 20
233.1103807566659
 30
0.0
 11
15.65053729249853
 21
211.33549405380489
 31
0.0
  0
LINE
  5
4D
  8
PATTERN_FILL
  6
CONTINUOUS
 62
     7
 10
3.4892047561888959
 20
235.86364150957141
 30
0.0
 11
18.240133129337689
 21
210.3142841084684
 31
0.0
  0
LINE
  5
4E
  8
PATTERN_FILL
  6
CONTINUOUS
 62
     7
 10
4.1316377254849206
 20
238.21501658143109
 30
0.0
 11
20.597700160041601
 21
209.69495984417759
 31
0.0
  0
LINE
  5
4F
  8
PATTERN_FILL
  6
CONTINUOUS
 62
     7
 10
4.9389681813713793
 20
240.2807808284758
 30
0.0
 11
22.790369704155239
 21
209.36124640470169
 31
0.0
  0
LINE
  5
50
  8
PATTERN_FILL
  6
CONTINUOUS
 62
     7
 10
5.8750185203741694
 20
242.12359569801859
 30
0.0
 11
24.854319365152421
 21
209.25048234272771
 31
0.0
  0
LINE
  5
51
  8
PATTERN_FILL
  6
CONTINUOUS
 62
     7
 10
6.9178706540482153
 20
243.78142443285131
 30
0.0
 11
26.811467231478289
 21
209.32470441546411
 31
0.0
  0
LINE
  5
52
  8
PATTERN_FILL
  6
CONTINUOUS
 62
     7
 10
8.0533098056939671
 20
245.27888774843569
 30
0.0
 11
28.676028079832591
 21
209.5592919074484
 31
0.0
  0
LINE
  5
53
  8
PATTERN_FILL
  6
CONTINUOUS
 62
     7
 10
9.2717723459461592
 20
246.63255033673721
 30
0.0
 11
30.457565539580401
 21
209.93768012671589
 31
0.0
  0
LINE
  5
54
  8
PATTERN_FILL
  6
CONTINUOUS
 62
     7
 10
10.56676223043711
 20
247.85366367664881
 30
0.0
 11
32.162575655089263
 21
210.4486175943733
 31
0.0
  0
LINE
  5
55
  8
PATTERN_FILL
  6
CONTINUOUS
 62
     7
 10
11.93397269662532
 20
248.94968729970881
 30
0.0
 11
33.795365188901201
 21
211.08464477888219
 31
0.0
  0
LINE
  5
56
  8
PATTERN_FILL
  6
CONTINUOUS
 62
     7
 10
13.37078648557052
 20
249.9251544313779
 30
0.0
 11
35.358551399956028
 21
211.8412284547818
 31
0.0
  0
LINE
  5
57
  8
PATTERN_FILL
  6
CONTINUOUS
 62
     7
 10
14.876002848108881
 20
250.7821448302152
 30
0.0
 11
36.853335037417672
 21
212.7162888635134
 31
0.0
  0
LINE
  5
58
  8
PATTERN_FILL
  6
CONTINUOUS
 62
     7
 10
16.449719854607039
 20
251.5204886333629
 30
0.0
 11
38.279618030919551
 21
213.7099958679344
 31
0.0
  0
LINE
  5
59
  8
PATTERN_FILL
  6
CONTINUOUS
 62
     7
 10
18.093343831418789
 20
252.13775001212429
 30
0.0
 11
39.635994054107712
 21
214.82478529674211
 31
0.0
  0
LINE
  5
5A
  8
PATTERN_FILL
  6
CONTINUOUS
 62
     7
 10
19.809728122866769
 20
252.62898682916099
 30
0.0
 11
40.919609762659718
 21
216.06559928727421
 31
0.0
  0
LINE
  5
5B
  8
PATTERN_FILL
  6
CONTINUOUS
 62
     7
 10
21.603474725287729
 20
252.98622819300169
 30
0.0
 11
42.125863160238808
 21
217.44040873100241
 31
0.0
  0
LINE
  5
5C
  8
PATTERN_FILL
  6
CONTINUOUS
 62
     7
 10
23.48147928425773
 20
253.19753049515739
 30
0.0
 11
43.247858601268781
 21
218.96115723641569
 31
0.0
  0
LINE
  5
5D
  8
PATTERN_FILL
  6
CONTINUOUS
 62
     7
 10
25.453889544476059
 20
253.2453173262268
 30
0.0
 11
44.27544834105047
 21
220.64542121291501
 31
0.0
  0
LINE
  5
5E
  8
PATTERN_FILL
  6
CONTINUOUS
 62
     7
 10
27.53584682764151
 20
253.103363147734
 30
0.0
 11
45.193491057885034
 21
222.51942619897679
 31
0.0
  0
LINE
  5
5F
  8
PATTERN_FILL
  6
CONTINUOUS
 62
     7
 10
29.750888627910001
 20
252.73089982391789
 30
0.0
 11
45.97844925761656
 21
224.62394033036171
 31
0.0
  0
LINE
  5
60
  8
PATTERN_FILL
  6
CONTINUOUS
 62
     7
 10
32.138413892259067
 20
252.05968637684879
 30
0.0
 11
46.590923993267481
 21
227.02720458499971
 31
0.0
  0
LINE
  5
61
  8
PATTERN_FILL
  6
CONTINUOUS
 62
     7
 10
34.773356020890553
 20
250.95993435019309
 30
0.0
 11
46.955981864636001
 21
229.8590074192243
 31
0.0
  0
LINE
  5
62
  8
PATTERN_FILL
  6
CONTINUOUS
 62
     7
 10
37.838144429473729
 20
249.11566672721659
 30
0.0
 11
46.891193456052811
 21
233.43532584976961
 31
0.0
  0
LINE
  5
63
  8
PATTERN_FILL
  6
CONTINUOUS
 62
     7
 10
6.9708329516936356
 20
243.85750314472571
 30
0.0
 11
5.0669984742216201
 21
240.5599651005428
 31
0.0
  0
LINE
  5
64
  8
PATTERN_FILL
  6
CONTINUOUS
 62
     7
 10
11.893527777637781
 20
248.91975907827961
 30
0.0
 11
3.1443036482780542
 21
233.765658359421
 31
0.0
  0
LINE
  5
65
  8
PATTERN_FILL
  6
CONTINUOUS
 62
     7
 10
15.00793190958704
 20
250.8499636549804
 30
0.0
 11
3.0298995163285118
 21
230.1034029751508
 31
0.0
  0
LINE
  5
66
  8
PATTERN_FILL
  6
CONTINUOUS
 62
     7
 10
17.667300096196438
 20
251.99202285508241
 30
0.0
 11
3.3705313297194679
 21
227.2292929674804
 31
0.0
  0
LINE
  5
67
  8
PATTERN_FILL
  6
CONTINUOUS
 62
     7
 10
20.07065363576509
 20
252.69065167902809
 30
0.0
 11
3.967177790150898
 21
224.79861333596611
 31
0.0
  0
LINE
  5
68
  8
PATTERN_FILL
  6
CONTINUOUS
 62
     7
 10
22.2973875540367
 20
253.0833663452737
 30
0.0
 11
4.7404438718792496
 21
222.6738478621516
 31
0.0
  0
LINE
  5
69
  8
PATTERN_FILL
  6
CONTINUOUS
 62
     7
 10
24.388689037412188
 20
253.2415051532864
 30
0.0
 11
5.6491423885037051
 21
220.78365824656979
 31
0.0
  0
LINE
  5
6A
  8
PATTERN_FILL
  6
CONTINUOUS
 62
     7
 10
26.36897847614356
 20
253.20736545972341
 30
0.0
 11
6.668852949772301
 21
219.08574713256391
 31
0.0
  0
LINE
  5
6B
  8
PATTERN_FILL
  6
CONTINUOUS
 62
     7
 10
28.25389596334119
 20
253.00803670048711
 30
0.0
 11
7.7839354625746751
 21
217.55302508423139
 31
0.0
  0
LINE
  5
6C
  8
PATTERN_FILL
  6
CONTINUOUS
 62
     7
 10
30.053900526083179
 20
252.6616344418743
 30
0.0
 11
8.9839308998327283
 21
216.16737653527539
 31
0.0
  0
LINE
  5
6D
  8
PATTERN_FILL
  6
CONTINUOUS
 62
     7
 10
31.776098861897069
 20
252.18046784507669
 30
0.0
 11
10.261732564018731
 21
214.91649232450379
 31
0.0
  0
LINE
  5
6E
  8
PATTERN_FILL
  6
CONTINUOUS
 62
     7
 10
33.425247524656278
 20
251.57277550307211
 30
0.0
 11
11.61258390125956
 21
213.79213385893959
 31
0.0
  0
LINE
  5
6F
  8
PATTERN_FILL
  6
CONTINUOUS
 62
     7
 10
35.004322299603103
 20
250.84371162709269
 30
0.0
 11
13.033509126312749
 21
212.7891469273502
 31
0.0
  0
LINE
  5
70
  8
PATTERN_FILL
  6
CONTINUOUS
 62
     7
 10
36.514835054283978
 20
249.995894848543
 30
0.0
 11
14.52299637163185
 21
211.90491289833099
 31
0.0
  0
LINE
  5
71
  8
PATTERN_FILL
  6
CONTINUOUS
 62
     7
 10
37.956983478701147
 20
249.0296675765513
 30
0.0
 11
16.080847947214799
 21
211.13908936275411
 31
0.0
  0
LINE
  5
72
  8
PATTERN_FILL
  6
CONTINUOUS
 62
     7
 10
39.329670114711412
 20
247.9431289578541
 30
0.0
 11
17.70816131120452
 21
210.49357717388239
 31
0.0
  0
LINE
  5
73
  8
PATTERN_FILL
  6
CONTINUOUS
 62
     7
 10
40.630395111329953
 20
246.73194912353449
 30
0.0
 11
19.407436314585851
 21
209.9727062006329
 31
0.0
  0
LINE
  5
74
  8
PATTERN_FILL
  6
CONTINUOUS
 62
     7
 10
41.854997142064178
 20
245.38892044468051
 30
0.0
 11
21.182834283851701
 21
209.58368407191821
 31
0.0
  0
LINE
  5
75
  8
PATTERN_FILL
  6
CONTINUOUS
 62
     7
 10
42.997175260402031
 20
243.90312936179731
 30
0.0
 11
23.040656165513852
 21
209.33742434723251
 31
0.0
  0
LINE
  5
76
  8
PATTERN_FILL
  6
CONTINUOUS
 62
     7
 10
44.047648466225809
 20
242.25850071113609
 30
0.0
 11
24.990182959689999
 21
209.25000219032469
 31
0.0
  0
LINE
  5
77
  8
PATTERN_FILL
  6
CONTINUOUS
 62
     7
 10
44.992645827589349
 20
240.4311825388985
 30
0.0
 11
27.045185598326452
 21
209.34526955499339
 31
0.0
  0
LINE
  5
78
  8
PATTERN_FILL
  6
CONTINUOUS
 62
     7
 10
45.811015354019013
 20
238.384538522903
 30
0.0
 11
29.226816071896859
 21
209.65986276342011
 31
0.0
  0
LINE
  5
79
  8
PATTERN_FILL
  6
CONTINUOUS
 62
     7
 10
46.468076789503861
 20
236.05850069771921
 30
0.0
 11
31.569754636412089
 21
210.2538497810352
 31
0.0
  0
LINE
  5
7A
  8
PATTERN_FILL
  6
CONTINUOUS
 62
     7
 10
46.900223183325593
 20
233.34289859298821
 30
0.0
 11
34.13760824259041
 21
211.23740107819731
 31
0.0
  0
LINE
  5
7B
  8
PATTERN_FILL
  6
CONTINUOUS
 62
     7
 10
46.963829192323502
 20
229.98896581710159
 30
0.0
 11
37.074002233592459
 21
212.859283046515
 31
0.0
  0
LINE
  5
7C
  8
PATTERN_FILL
  6
CONTINUOUS
 62
     7
 10
46.104114661869559
 20
225.0357949552124
 30
0.0
 11
40.933716764046487
 21
216.0804031008355
 31
0.0
  0
LINE
  5
7D
  8
PATTERN_FILL
  6
CONTINUOUS
 62
     7
 10
4.3464666472163307
 20
152.91898591279761
 30
0.0
 11
11.083558805139971
 21
141.25
 31
0.0
  0
LINE
  5
7E
  8
PATTERN_FILL
  6
CONTINUOUS
 62
     7
 10
3.2916582032490842
 20
158.21006934513929
 30
0.0
 11
13.083558805139971
 21
141.25
 31
0.0
  0
LINE
  5
7F
  8
PATTERN_FILL
  6
CONTINUOUS
 62
     7
 10
3.392215854050078
 20
161.5
 30
0.0
 11
15.083558805139971
 21
141.25
 31
0.0
  0
LINE
  5
80
  8
PATTERN_FILL
  6
CONTINUOUS
 62
     7
 10
5.3922158540500638
 20
161.5
 30
0.0
 11
17.083558805139969
 21
141.25
 31
0.0
  0
LINE
  5
81
  8
PATTERN_FILL
  6
CONTINUOUS
 62
     7
 10
3.1329790121326511
 20
168.87721461167021
 30
0.0
 11
4.216789373507126
 21
167.0
 31
0.0
  0
LINE
  5
82
  8
PATTERN_FILL
  6
CONTINUOUS
 62
     7
 10
7.3922158540500789
 20
161.5
 30
0.0
 11
19.083558805139969
 21
141.25
 31
0.0
  0
LINE
  5
83
  8
PATTERN_FILL
  6
CONTINUOUS
 62
     7
 10
3.50140948617701
 20
171.70317592670639
 30
0.0
 11
6.2167893735071402
 21
167.0
 31
0.0
  0
LINE
  5
84
  8
PATTERN_FILL
  6
CONTINUOUS
 62
     7
 10
9.3922158540500646
 20
161.5
 30
0.0
 11
21.083558805139969
 21
141.25
 31
0.0
  0
LINE
  5
85
  8
PATTERN_FILL
  6
CONTINUOUS
 62
     7
 10
4.0047649759351156
 20
174.2954402593144
 30
0.0
 11
8.2167893735071384
 21
167.0
 31
0.0
  0
LINE
  5
86
  8
PATTERN_FILL
  6
CONTINUOUS
 62
     7
 10
11.392215854050059
 20
161.5
 30
0.0
 11
23.083558805139969
 21
141.25
 31
0.0
  0
LINE
  5
87
  8
PATTERN_FILL
  6
CONTINUOUS
 62
     7
 10
4.6493066274906729
 20
176.64316298636359
 30
0.0
 11
10.21678937350714
 21
167.0
 31
0.0
  0
LINE
  5
88
  8
PATTERN_FILL
  6
CONTINUOUS
 62
     7
 10
13.392215854050081
 20
161.5
 30
0.0
 11
25.08355880513998
 21
141.25
 31
0.0
  0
LINE
  5
89
  8
PATTERN_FILL
  6
CONTINUOUS
 62
     7
 10
5.3792084268356044
 20
178.8430376005
 30
0.0
 11
12.216789373507121
 21
167.0
 31
0.0
  0
LINE
  5
8A
  8
PATTERN_FILL
  6
CONTINUOUS
 62
     7
 10
15.392215854050059
 20
161.5
 30
0.0
 11
27.083558805139969
 21
141.25
 31
0.0
  0
LINE
  5
8B
  8
PATTERN_FILL
  6
CONTINUOUS
 62
     7
 10
6.1924648626498699
 20
180.898537749225
 30
0.0
 11
14.21678937350714
 21
167.0
 31
0.0
  0
LINE
  5
8C
  8
PATTERN_FILL
  6
CONTINUOUS
 62
     7
 10
17.392215854050079
 20
161.5
 30
0.0
 11
29.083558805139969
 21
141.25
 31
0.0
  0
LINE
  5
8D
  8
PATTERN_FILL
  6
CONTINUOUS
 62
     7
 10
7.07877998671482
 20
182.8274965379656
 30
0.0
 11
16.216789373507119
 21
167.0
 31
0.0
  0
LINE
  5
8E
  8
PATTERN_FILL
  6
CONTINUOUS
 62
     7
 10
19.392215854050072
 20
161.5
 30
0.0
 11
31.083558805139969
 21
141.25
 31
0.0
  0
LINE
  5
8F
  8
PATTERN_FILL
  6
CONTINUOUS
 62
     7
 10
8.0303469165778107
 20
184.64343588377841
 30
0.0
 11
18.216789373507119
 21
167.0
 31
0.0
  0
LINE
  5
90
  8
PATTERN_FILL
  6
CONTINUOUS
 62
     7
 10
21.392215854050072
 20
161.5
 30
0.0
 11
33.083558805139972
 21
141.25
 31
0.0
  0
LINE
  5
91
  8
PATTERN_FILL
  6
CONTINUOUS
 62
     7
 10
9.0537102465290644
 20
186.33502021683771
 30
0.0
 11
20.21678937350714
 21
167.0
 31
0.0
  0
LINE
  5
92
  8
PATTERN_FILL
  6
CONTINUOUS
 62
     7
 10
23.392215854050061
 20
161.5
 30
0.0
 11
35.08355880513998
 21
141.25
 31
0.0
  0
LINE
  5
93
  8
PATTERN_FILL
  6
CONTINUOUS
 62
     7
 10
10.19933093817049
 20
187.81484858785021
 30
0.0
 11
22.21678937350713
 21
167.0
 31
0.0
  0
LINE
  5
94
  8
PATTERN_FILL
  6
CONTINUOUS
 62
     7
 10
25.392215854050072
 20
161.5
 30
0.0
 11
37.083558805139972
 21
141.25
 31
0.0
  0
LINE
  5
95
  8
PATTERN_FILL
  6
CONTINUOUS
 62
     7
 10
11.45095697105301
 20
189.1110703219596
 30
0.0
 11
24.21678937350714
 21
167.0
 31
0.0
  0
LINE
  5
96
  8
PATTERN_FILL
  6
CONTINUOUS
 62
     7
 10
27.392215854050079
 20
161.5
 30
0.0
 11
39.083558805139972
 21
141.25
 31
0.0
  0
LINE
  5
97
  8
PATTERN_FILL
  6
CONTINUOUS
 62
     7
 10
12.799133263782929
 20
190.24006210052929
 30
0.0
 11
26.21678937350713
 21
167.0
 31
0.0
  0
LINE
  5
98
  8
PATTERN_FILL
  6
CONTINUOUS
 62
     7
 10
29.392215854050061
 20
161.5
 30
0.0
 11
40.731291959804651
 21
141.86014407394279
 31
0.0
  0
LINE
  5
99
  8
PATTERN_FILL
  6
CONTINUOUS
 62
     7
 10
14.23863487353921
 20
191.21087378999189
 30
0.0
 11
28.21678937350713
 21
167.0
 31
0.0
  0
LINE
  5
9A
  8
PATTERN_FILL
  6
CONTINUOUS
 62
     7
 10
31.392215854050072
 20
161.5
 30
0.0
 11
41.77654140827255
 21
143.5138205377508
 31
0.0
  0
LINE
  5
9B
  8
PATTERN_FILL
  6
CONTINUOUS
 62
     7
 10
15.821727499225119
 20
191.9329785443542
 30
0.0
 11
30.21678937350714
 21
167.0
 31
0.0
  0
LINE
  5
9C
  8
PATTERN_FILL
  6
CONTINUOUS
 62
     7
 10
33.392215854050058
 20
161.5
 30
0.0
 11
42.740111458044879
 21
145.30896987003121
 31
0.0
  0
LINE
  5
9D
  8
PATTERN_FILL
  6
CONTINUOUS
 62
     7
 10
17.52092627056005
 20
192.4539815553812
 30
0.0
 11
32.216789373507133
 21
167.0
 31
0.0
  0
LINE
  5
9E
  8
PATTERN_FILL
  6
CONTINUOUS
 62
     7
 10
35.392215854050072
 20
161.5
 30
0.0
 11
43.639733891264768
 21
147.2148797232033
 31
0.0
  0
LINE
  5
9F
  8
PATTERN_FILL
  6
CONTINUOUS
 62
     7
 10
19.273840364338199
 20
192.8819468987916
 30
0.0
 11
34.21678937350714
 21
167.0
 31
0.0
  0
LINE
  5
A0
  8
PATTERN_FILL
  6
CONTINUOUS
 62
     7
 10
37.392215854050079
 20
161.5
 30
0.0
 11
44.467991368898353
 21
149.24439730533089
 31
0.0
  0
LINE
  5
A1
  8
PATTERN_FILL
  6
CONTINUOUS
 62
     7
 10
21.112442809966751
 20
193.1614956631804
 30
0.0
 11
36.21678937350714
 21
167.0
 31
0.0
  0
LINE
  5
A2
  8
PATTERN_FILL
  6
CONTINUOUS
 62
     7
 10
39.392215854050072
 20
161.5
 30
0.0
 11
45.21515112824666
 21
151.41438025590651
 31
0.0
  0
LINE
  5
A3
  8
PATTERN_FILL
  6
CONTINUOUS
 62
     7
 10
23.061344807279479
 20
193.25
 30
0.0
 11
38.21678937350714
 21
167.0
 31
0.0
  0
LINE
  5
A4
  8
PATTERN_FILL
  6
CONTINUOUS
 62
     7
 10
41.392215854050079
 20
161.5
 30
0.0
 11
45.86806560944953
 21
153.74760081660341
 31
0.0
  0
LINE
  5
A5
  8
PATTERN_FILL
  6
CONTINUOUS
 62
     7
 10
25.061344807279479
 20
193.25
 30
0.0
 11
40.216789373507133
 21
167.0
 31
0.0
  0
LINE
  5
A6
  8
PATTERN_FILL
  6
CONTINUOUS
 62
     7
 10
43.392215854050072
 20
161.5
 30
0.0
 11
46.408274754111758
 21
156.27603274647279
 31
0.0
  0
LINE
  5
A7
  8
PATTERN_FILL
  6
CONTINUOUS
 62
     7
 10
27.06134480727949
 20
193.25
 30
0.0
 11
42.216789373507133
 21
167.0
 31
0.0
  0
LINE
  5
A8
  8
PATTERN_FILL
  6
CONTINUOUS
 62
     7
 10
45.392215854050072
 20
161.5
 30
0.0
 11
46.808458900347922
 21
159.04699508794599
 31
0.0
  0
LINE
  5
A9
  8
PATTERN_FILL
  6
CONTINUOUS
 62
     7
 10
29.127146513640799
 20
193.1360281013574
 30
0.0
 11
44.21678937350714
 21
167.0
 31
0.0
  0
LINE
  5
AA
  8
PATTERN_FILL
  6
CONTINUOUS
 62
     7
 10
31.354689662031969
 20
192.74191180742969
 30
0.0
 11
46.21678937350714
 21
167.0
 31
0.0
  0
LINE
  5
AB
  8
PATTERN_FILL
  6
CONTINUOUS
 62
     7
 10
33.737909898644453
 20
192.07815488712839
 30
0.0
 11
46.810295810350887
 21
169.4361183119052
 31
0.0
  0
LINE
  5
AC
  8
PATTERN_FILL
  6
CONTINUOUS
 62
     7
 10
36.517460243745262
 20
190.72793408235589
 30
0.0
 11
45.960071947256253
 21
174.37285085573029
 31
0.0
  0
LINE
  5
AD
  8
PATTERN_FILL
  6
CONTINUOUS
 62
     7
 10
13.49817118787078
 20
190.73850215527699
 30
0.0
 11
4.0047649759351307
 21
174.2954402593144
 31
0.0
  0
LINE
  5
AE
  8
PATTERN_FILL
  6
CONTINUOUS
 62
     7
 10
16.273790391473518
 20
192.081914023243
 30
0.0
 11
3.18750360568903
 21
169.4158004278471
 31
0.0
  0
LINE
  5
AF
  8
PATTERN_FILL
  6
CONTINUOUS
 62
     7
 10
18.65634559785428
 20
192.7445190773945
 30
0.0
 11
3.792740578363095
 21
167.0
 31
0.0
  0
LINE
  5
B0
  8
PATTERN_FILL
  6
CONTINUOUS
 62
     7
 10
20.883047195722671
 20
193.13717776305961
 30
0.0
 11
5.7927405783630954
 21
167.0
 31
0.0
  0
LINE
  5
B1
  8
PATTERN_FILL
  6
CONTINUOUS
 62
     7
 10
22.94818514459077
 20
193.25
 30
0.0
 11
7.7927405783630936
 21
167.0
 31
0.0
  0
LINE
  5
B2
  8
PATTERN_FILL
  6
CONTINUOUS
 62
     7
 10
4.617314097820155
 20
161.5
 30
0.0
 11
3.1930565354022198
 21
159.03311353882791
 31
0.0
  0
LINE
  5
B3
  8
PATTERN_FILL
  6
CONTINUOUS
 62
     7
 10
24.948185144590781
 20
193.25
 30
0.0
 11
9.7927405783631052
 21
167.0
 31
0.0
  0
LINE
  5
B4
  8
PATTERN_FILL
  6
CONTINUOUS
 62
     7
 10
6.6173140978201692
 20
161.5
 30
0.0
 11
3.5939937950387129
 21
156.263455628028
 31
0.0
  0
LINE
  5
B5
  8
PATTERN_FILL
  6
CONTINUOUS
 62
     7
 10
26.948185144590791
 20
193.25
 30
0.0
 11
11.792740578363111
 21
167.0
 31
0.0
  0
LINE
  5
B6
  8
PATTERN_FILL
  6
CONTINUOUS
 62
     7
 10
8.6173140978201577
 20
161.5
 30
0.0
 11
4.1347956860857664
 21
153.73605036501311
 31
0.0
  0
LINE
  5
B7
  8
PATTERN_FILL
  6
CONTINUOUS
 62
     7
 10
28.896568009784289
 20
193.16059649997399
 30
0.0
 11
13.792740578363089
 21
167.0
 31
0.0
  0
LINE
  5
B8
  8
PATTERN_FILL
  6
CONTINUOUS
 62
     7
 10
10.617314097820159
 20
161.5
 30
0.0
 11
4.7881977564978646
 21
151.40367433359981
 31
0.0
  0
LINE
  5
B9
  8
PATTERN_FILL
  6
CONTINUOUS
 62
     7
 10
30.734678210405391
 20
192.88019514222259
 30
0.0
 11
15.7927405783631
 21
167.0
 31
0.0
  0
LINE
  5
BA
  8
PATTERN_FILL
  6
CONTINUOUS
 62
     7
 10
12.617314097820151
 20
161.5
 30
0.0
 11
5.5357718260382844
 21
149.23440898932699
 31
0.0
  0
LINE
  5
BB
  8
PATTERN_FILL
  6
CONTINUOUS
 62
     7
 10
32.487293691990601
 20
192.45171258732219
 30
0.0
 11
17.792740578363109
 21
167.0
 31
0.0
  0
LINE
  5
BC
  8
PATTERN_FILL
  6
CONTINUOUS
 62
     7
 10
14.617314097820151
 20
161.5
 30
0.0
 11
6.3643902469823672
 21
147.20551657935189
 31
0.0
  0
LINE
  5
BD
  8
PATTERN_FILL
  6
CONTINUOUS
 62
     7
 10
34.186246251130378
 20
191.9302831242637
 30
0.0
 11
19.792740578363109
 21
167.0
 31
0.0
  0
LINE
  5
BE
  8
PATTERN_FILL
  6
CONTINUOUS
 62
     7
 10
16.617314097820149
 20
161.5
 30
0.0
 11
7.264333455677189
 21
145.30016232560021
 31
0.0
  0
LINE
  5
BF
  8
PATTERN_FILL
  6
CONTINUOUS
 62
     7
 10
35.768436579710368
 20
191.2066155454707
 30
0.0
 11
21.792740578363091
 21
167.0
 31
0.0
  0
LINE
  5
C0
  8
PATTERN_FILL
  6
CONTINUOUS
 62
     7
 10
18.61731409782017
 20
161.5
 30
0.0
 11
8.2281932821243942
 21
143.50551490124349
 31
0.0
  0
LINE
  5
C1
  8
PATTERN_FILL
  6
CONTINUOUS
 62
     7
 10
37.207510074893008
 20
190.23506233981499
 30
0.0
 11
23.792740578363091
 21
167.0
 31
0.0
  0
LINE
  5
C2
  8
PATTERN_FILL
  6
CONTINUOUS
 62
     7
 10
20.617314097820159
 20
161.5
 30
0.0
 11
9.2740048271377997
 21
141.85281201721111
 31
0.0
  0
LINE
  5
C3
  8
PATTERN_FILL
  6
CONTINUOUS
 62
     7
 10
38.55524154296215
 20
189.10530010233239
 30
0.0
 11
25.792740578363091
 21
167.0
 31
0.0
  0
LINE
  5
C4
  8
PATTERN_FILL
  6
CONTINUOUS
 62
     7
 10
22.617314097820159
 20
161.5
 30
0.0
 11
10.92597114673023
 21
141.25
 31
0.0
  0
LINE
  5
C5
  8
PATTERN_FILL
  6
CONTINUOUS
 62
     7
 10
39.806388839404732
 20
187.80824917238559
 30
0.0
 11
27.792740578363109
 21
167.0
 31
0.0
  0
LINE
  5
C6
  8
PATTERN_FILL
  6
CONTINUOUS
 62
     7
 10
24.617314097820159
 20
161.5
 30
0.0
 11
12.92597114673023
 21
141.25
 31
0.0
  0
LINE
  5
C7
  8
PATTERN_FILL
  6
CONTINUOUS
 62
     7
 10
40.951472898755583
 20
186.32749132698069
 30
0.0
 11
29.792740578363091
 21
167.0
 31
0.0
  0
LINE
  5
C8
  8
PATTERN_FILL
  6
CONTINUOUS
 62
     7
 10
26.617314097820181
 20
161.5
 30
0.0
 11
14.92597114673023
 21
141.25
 31
0.0
  0
LINE
  5
C9
  8
PATTERN_FILL
  6
CONTINUOUS
 62
     7
 10
41.974331878322758
 20
184.63503343343129
 30
0.0
 11
31.792740578363091
 21
167.0
 31
0.0
  0
LINE
  5
CA
  8
PATTERN_FILL
  6
CONTINUOUS
 62
     7
 10
28.617314097820159
 20
161.5
 30
0.0
 11
16.92597114673023
 21
141.25
 31
0.0
  0
LINE
  5
CB
  8
PATTERN_FILL
  6
CONTINUOUS
 62
     7
 10
42.925603420041519
 20
182.81858246034491
 30
0.0
 11
33.792740578363109
 21
167.0
 31
0.0
  0
LINE
  5
CC
  8
PATTERN_FILL
  6
CONTINUOUS
 62
     7
 10
30.617314097820159
 20
161.5
 30
0.0
 11
18.925971146730252
 21
141.25
 31
0.0
  0
LINE
  5
CD
  8
PATTERN_FILL
  6
CONTINUOUS
 62
     7
 10
43.811590561288362
 20
180.88905558869939
 30
0.0
 11
35.792740578363102
 21
167.0
 31
0.0
  0
LINE
  5
CE
  8
PATTERN_FILL
  6
CONTINUOUS
 62
     7
 10
32.617314097820163
 20
161.5
 30
0.0
 11
20.925971146730241
 21
141.25
 31
0.0
  0
LINE
  5
CF
  8
PATTERN_FILL
  6
CONTINUOUS
 62
     7
 10
44.62447658910574
 20
178.8329138745041
 30
0.0
 11
37.792740578363102
 21
167.0
 31
0.0
  0
LINE
  5
D0
  8
PATTERN_FILL
  6
CONTINUOUS
 62
     7
 10
34.61731409782017
 20
161.5
 30
0.0
 11
22.92597114673023
 21
141.25
 31
0.0
  0
LINE
  5
D1
  8
PATTERN_FILL
  6
CONTINUOUS
 62
     7
 10
45.353951281782898
 20
176.63229948991901
 30
0.0
 11
39.792740578363102
 21
167.0
 31
0.0
  0
LINE
  5
D2
  8
PATTERN_FILL
  6
CONTINUOUS
 62
     7
 10
36.617314097820163
 20
161.5
 30
0.0
 11
24.92597114673023
 21
141.25
 31
0.0
  0
LINE
  5
D3
  8
PATTERN_FILL
  6
CONTINUOUS
 62
     7
 10
45.985991096754518
 20
174.26292294671839
 30
0.0
 11
41.792740578363109
 21
167.0
 31
0.0
  0
LINE
  5
D4
  8
PATTERN_FILL
  6
CONTINUOUS
 62
     7
 10
38.617314097820163
 20
161.5
 30
0.0
 11
26.925971146730252
 21
141.25
 31
0.0
  0
LINE
  5
D5
  8
PATTERN_FILL
  6
CONTINUOUS
 62
     7
 10
46.500723484279128
 20
171.6903639790745
 30
0.0
 11
43.792740578363102
 21
167.0
 31
0.0
  0
LINE
  5
D6
  8
PATTERN_FILL
  6
CONTINUOUS
 62
     7
 10
40.617314097820149
 20
161.5
 30
0.0
 11
28.925971146730252
 21
141.25
 31
0.0
  0
LINE
  5
D7
  8
PATTERN_FILL
  6
CONTINUOUS
 62
     7
 10
46.8683584257899
 20
168.86302476127111
 30
0.0
 11
45.792740578363102
 21
167.0
 31
0.0
  0
LINE
  5
D8
  8
PATTERN_FILL
  6
CONTINUOUS
 62
     7
 10
42.617314097820149
 20
161.5
 30
0.0
 11
30.925971146730252
 21
141.25
 31
0.0
  0
LINE
  5
D9
  8
PATTERN_FILL
  6
CONTINUOUS
 62
     7
 10
44.617314097820149
 20
161.5
 30
0.0
 11
32.925971146730248
 21
141.25
 31
0.0
  0
LINE
  5
DA
  8
PATTERN_FILL
  6
CONTINUOUS
 62
     7
 10
46.617314097820149
 20
161.5
 30
0.0
 11
34.925971146730248
 21
141.25
 31
0.0
  0
LINE
  5
DB
  8
PATTERN_FILL
  6
CONTINUOUS
 62
     7
 10
46.705557097210423
 20
158.18873974321841
 30
0.0
 11
36.925971146730241
 21
141.25
 31
0.0
  0
LINE
  5
DC
  8
PATTERN_FILL
  6
CONTINUOUS
 62
     7
 10
45.645118423755811
 20
152.88790446734629
 30
0.0
 11
38.925971146730241
 21
141.25
 31
0.0
  0
LINE
  5
DD
  8
PATTERN_FILL
  6
CONTINUOUS
 62
     7
 10
79.346466647216346
 20
152.91898591279761
 30
0.0
 11
86.083558805139944
 21
141.25
 31
0.0
  0
LINE
  5
DE
  8
PATTERN_FILL
  6
CONTINUOUS
 62
     7
 10
78.291658203249085
 20
158.21006934513929
 30
0.0
 11
88.083558805139958
 21
141.25
 31
0.0
  0
LINE
  5
DF
  8
PATTERN_FILL
  6
CONTINUOUS
 62
     7
 10
78.392215854050079
 20
161.5
 30
0.0
 11
90.083558805139944
 21
141.25
 31
0.0
  0
LINE
  5
E0
  8
PATTERN_FILL
  6
CONTINUOUS
 62
     7
 10
80.392215854050065
 20
161.5
 30
0.0
 11
92.083558805139958
 21
141.25
 31
0.0
  0
LINE
  5
E1
  8
PATTERN_FILL
  6
CONTINUOUS
 62
     7
 10
78.132979012132651
 20
168.87721461167021
 30
0.0
 11
79.216789373507126
 21
167.0
 31
0.0
  0
LINE
  5
E2
  8
PATTERN_FILL
  6
CONTINUOUS
 62
     7
 10
82.392215854050079
 20
161.5
 30
0.0
 11
94.083558805139958
 21
141.25
 31
0.0
  0
LINE
  5
E3
  8
PATTERN_FILL
  6
CONTINUOUS
 62
     7
 10
78.50140948617701
 20
171.70317592670639
 30
0.0
 11
81.216789373507126
 21
167.0
 31
0.0
  0
LINE
  5
E4
  8
PATTERN_FILL
  6
CONTINUOUS
 62
     7
 10
84.392215854050065
 20
161.5
 30
0.0
 11
96.083558805139972
 21
141.25
 31
0.0
  0
LINE
  5
E5
  8
PATTERN_FILL
  6
CONTINUOUS
 62
     7
 10
79.004764975935103
 20
174.2954402593144
 30
0.0
 11
83.21678937350714
 21
167.0
 31
0.0
  0
LINE
  5
E6
  8
PATTERN_FILL
  6
CONTINUOUS
 62
     7
 10
86.392215854050065
 20
161.5
 30
0.0
 11
98.083558805139958
 21
141.25
 31
0.0
  0
LINE
  5
E7
  8
PATTERN_FILL
  6
CONTINUOUS
 62
     7
 10
79.649306627490674
 20
176.64316298636359
 30
0.0
 11
85.21678937350714
 21
167.0
 31
0.0
  0
LINE
  5
E8
  8
PATTERN_FILL
  6
CONTINUOUS
 62
     7
 10
88.392215854050079
 20
161.5
 30
0.0
 11
100.0835588051399
 21
141.25
 31
0.0
  0
LINE
  5
E9
  8
PATTERN_FILL
  6
CONTINUOUS
 62
     7
 10
80.379208426835589
 20
178.8430376005
 30
0.0
 11
87.216789373507112
 21
167.0
 31
0.0
  0
LINE
  5
EA
  8
PATTERN_FILL
  6
CONTINUOUS
 62
     7
 10
90.392215854050065
 20
161.5
 30
0.0
 11
102.0835588051399
 21
141.25
 31
0.0
  0
LINE
  5
EB
  8
PATTERN_FILL
  6
CONTINUOUS
 62
     7
 10
81.192464862649885
 20
180.898537749225
 30
0.0
 11
89.21678937350714
 21
167.0
 31
0.0
  0
LINE
  5
EC
  8
PATTERN_FILL
  6
CONTINUOUS
 62
     7
 10
92.392215854050093
 20
161.5
 30
0.0
 11
104.0835588051399
 21
141.25
 31
0.0
  0
LINE
  5
ED
  8
PATTERN_FILL
  6
CONTINUOUS
 62
     7
 10
82.078779986714807
 20
182.8274965379656
 30
0.0
 11
91.216789373507112
 21
167.0
 31
0.0
  0
LINE
  5
EE
  8
PATTERN_FILL
  6
CONTINUOUS
 62
     7
 10
94.392215854050065
 20
161.5
 30
0.0
 11
106.0835588051399
 21
141.25
 31
0.0
  0
LINE
  5
EF
  8
PATTERN_FILL
  6
CONTINUOUS
 62
     7
 10
83.030346916577813
 20
184.64343588377841
 30
0.0
 11
93.216789373507112
 21
167.0
 31
0.0
  0
LINE
  5
F0
  8
PATTERN_FILL
  6
CONTINUOUS
 62
     7
 10
96.392215854050065
 20
161.5
 30
0.0
 11
108.0835588051399
 21
141.25
 31
0.0
  0
LINE
  5
F1
  8
PATTERN_FILL
  6
CONTINUOUS
 62
     7
 10
84.053710246529064
 20
186.33502021683771
 30
0.0
 11
95.21678937350714
 21
167.0
 31
0.0
  0
LINE
  5
F2
  8
PATTERN_FILL
  6
CONTINUOUS
 62
     7
 10
98.392215854050065
 20
161.5
 30
0.0
 11
110.0835588051399
 21
141.25
 31
0.0
  0
LINE
  5
F3
  8
PATTERN_FILL
  6
CONTINUOUS
 62
     7
 10
85.199330938170476
 20
187.81484858785021
 30
0.0
 11
97.216789373507112
 21
167.0
 31
0.0
  0
LINE
  5
F4
  8
PATTERN_FILL
  6
CONTINUOUS
 62
     7
 10
100.39221585404999
 20
161.5
 30
0.0
 11
112.0835588051399
 21
141.25
 31
0.0
  0
LINE
  5
F5
  8
PATTERN_FILL
  6
CONTINUOUS
 62
     7
 10
86.450956971053003
 20
189.1110703219596
 30
0.0
 11
99.21678937350714
 21
167.0
 31
0.0
  0
LINE
  5
F6
  8
PATTERN_FILL
  6
CONTINUOUS
 62
     7
 10
102.39221585404999
 20
161.5
 30
0.0
 11
114.0835588051399
 21
141.25
 31
0.0
  0
LINE
  5
F7
  8
PATTERN_FILL
  6
CONTINUOUS
 62
     7
 10
87.799133263782934
 20
190.24006210052929
 30
0.0
 11
101.2167893735071
 21
167.0
 31
0.0
  0
LINE
  5
F8
  8
PATTERN_FILL
  6
CONTINUOUS
 62
     7
 10
104.39221585404999
 20
161.5
 30
0.0
 11
115.73129195980459
 21
141.86014407394279
 31
0.0
  0
LINE
  5
F9
  8
PATTERN_FILL
  6
CONTINUOUS
 62
     7
 10
89.238634873539212
 20
191.21087378999189
 30
0.0
 11
103.2167893735071
 21
167.0
 31
0.0
  0
LINE
  5
FA
  8
PATTERN_FILL
  6
CONTINUOUS
 62
     7
 10
106.39221585404999
 20
161.5
 30
0.0
 11
116.77654140827261
 21
143.5138205377508
 31
0.0
  0
LINE
  5
FB
  8
PATTERN_FILL
  6
CONTINUOUS
 62
     7
 10
90.821727499225133
 20
191.9329785443542
 30
0.0
 11
105.2167893735071
 21
167.0
 31
0.0
  0
LINE
  5
FC
  8
PATTERN_FILL
  6
CONTINUOUS
 62
     7
 10
108.39221585405009
 20
161.5
 30
0.0
 11
117.74011145804489
 21
145.30896987003121
 31
0.0
  0
LINE
  5
FD
  8
PATTERN_FILL
  6
CONTINUOUS
 62
     7
 10
92.520926270560054
 20
192.4539815553812
 30
0.0
 11
107.2167893735071
 21
167.0
 31
0.0
  0
LINE
  5
FE
  8
PATTERN_FILL
  6
CONTINUOUS
 62
     7
 10
110.39221585404999
 20
161.5
 30
0.0
 11
118.6397338912647
 21
147.2148797232033
 31
0.0
  0
LINE
  5
FF
  8
PATTERN_FILL
  6
CONTINUOUS
 62
     7
 10
94.273840364338227
 20
192.8819468987916
 30
0.0
 11
109.2167893735071
 21
167.0
 31
0.0
  0
LINE
  5
100
  8
PATTERN_FILL
  6
CONTINUOUS
 62
     7
 10
112.39221585405009
 20
161.5
 30
0.0
 11
119.4679913688983
 21
149.24439730533089
 31
0.0
  0
LINE
  5
101
  8
PATTERN_FILL
  6
CONTINUOUS
 62
     7
 10
96.112442809966794
 20
193.1614956631804
 30
0.0
 11
111.2167893735071
 21
167.0
 31
0.0
  0
LINE
  5
102
  8
PATTERN_FILL
  6
CONTINUOUS
 62
     7
 10
114.39221585405009
 20
161.5
 30
0.0
 11
120.2151511282466
 21
151.41438025590651
 31
0.0
  0
LINE
  5
103
  8
PATTERN_FILL
  6
CONTINUOUS
 62
     7
 10
98.061344807279497
 20
193.25
 30
0.0
 11
113.2167893735071
 21
167.0
 31
0.0
  0
LINE
  5
104
  8
PATTERN_FILL
  6
CONTINUOUS
 62
     7
 10
116.39221585405009
 20
161.5
 30
0.0
 11
120.8680656094495
 21
153.74760081660341
 31
0.0
  0
LINE
  5
105
  8
PATTERN_FILL
  6
CONTINUOUS
 62
     7
 10
100.0613448072795
 20
193.25
 30
0.0
 11
115.2167893735071
 21
167.0
 31
0.0
  0
LINE
  5
106
  8
PATTERN_FILL
  6
CONTINUOUS
 62
     7
 10
118.39221585405009
 20
161.5
 30
0.0
 11
121.4082747541118
 21
156.27603274647279
 31
0.0
  0
LINE
  5
107
  8
PATTERN_FILL
  6
CONTINUOUS
 62
     7
 10
102.0613448072795
 20
193.25
 30
0.0
 11
117.2167893735071
 21
167.0
 31
0.0
  0
LINE
  5
108
  8
PATTERN_FILL
  6
CONTINUOUS
 62
     7
 10
120.39221585405009
 20
161.5
 30
0.0
 11
121.8084589003479
 21
159.04699508794599
 31
0.0
  0
LINE
  5
109
  8
PATTERN_FILL
  6
CONTINUOUS
 62
     7
 10
104.1271465136408
 20
193.1360281013574
 30
0.0
 11
119.2167893735071
 21
167.0
 31
0.0
  0
LINE
  5
10A
  8
PATTERN_FILL
  6
CONTINUOUS
 62
     7
 10
106.3546896620319
 20
192.74191180742969
 30
0.0
 11
121.2167893735071
 21
167.0
 31
0.0
  0
LINE
  5
10B
  8
PATTERN_FILL
  6
CONTINUOUS
 62
     7
 10
108.7379098986444
 20
192.07815488712839
 30
0.0
 11
121.81029581035079
 21
169.4361183119052
 31
0.0
  0
LINE
  5
10C
  8
PATTERN_FILL
  6
CONTINUOUS
 62
     7
 10
111.51746024374521
 20
190.72793408235589
 30
0.0
 11
120.9600719472562
 21
174.37285085573029
 31
0.0
  0
LINE
  5
10D
  8
PATTERN_FILL
  6
CONTINUOUS
 62
     7
 10
88.498171187870796
 20
190.73850215527699
 30
0.0
 11
79.004764975935146
 21
174.2954402593144
 31
0.0
  0
LINE
  5
10E
  8
PATTERN_FILL
  6
CONTINUOUS
 62
     7
 10
91.273790391473526
 20
192.081914023243
 30
0.0
 11
78.187503605689017
 21
169.4158004278471
 31
0.0
  0
LINE
  5
10F
  8
PATTERN_FILL
  6
CONTINUOUS
 62
     7
 10
93.656345597854283
 20
192.7445190773945
 30
0.0
 11
78.792740578363095
 21
167.0
 31
0.0
  0
LINE
  5
110
  8
PATTERN_FILL
  6
CONTINUOUS
 62
     7
 10
95.883047195722654
 20
193.13717776305961
 30
0.0
 11
80.792740578363095
 21
167.0
 31
0.0
  0
LINE
  5
111
  8
PATTERN_FILL
  6
CONTINUOUS
 62
     7
 10
97.948185144590752
 20
193.25
 30
0.0
 11
82.792740578363095
 21
167.0
 31
0.0
  0
LINE
  5
112
  8
PATTERN_FILL
  6
CONTINUOUS
 62
     7
 10
79.617314097820142
 20
161.5
 30
0.0
 11
78.193056535402221
 21
159.03311353882791
 31
0.0
  0
LINE
  5
113
  8
PATTERN_FILL
  6
CONTINUOUS
 62
     7
 10
99.948185144590781
 20
193.25
 30
0.0
 11
84.792740578363109
 21
167.0
 31
0.0
  0
LINE
  5
114
  8
PATTERN_FILL
  6
CONTINUOUS
 62
     7
 10
81.61731409782017
 20
161.5
 30
0.0
 11
78.593993795038685
 21
156.263455628028
 31
0.0
  0
LINE
  5
115
  8
PATTERN_FILL
  6
CONTINUOUS
 62
     7
 10
101.94818514459079
 20
193.25
 30
0.0
 11
86.792740578363137
 21
167.0
 31
0.0
  0
LINE
  5
116
  8
PATTERN_FILL
  6
CONTINUOUS
 62
     7
 10
83.617314097820156
 20
161.5
 30
0.0
 11
79.134795686085766
 21
153.73605036501311
 31
0.0
  0
LINE
  5
117
  8
PATTERN_FILL
  6
CONTINUOUS
 62
     7
 10
103.8965680097843
 20
193.16059649997399
 30
0.0
 11
88.792740578363095
 21
167.0
 31
0.0
  0
LINE
  5
118
  8
PATTERN_FILL
  6
CONTINUOUS
 62
     7
 10
85.617314097820142
 20
161.5
 30
0.0
 11
79.788197756497865
 21
151.40367433359981
 31
0.0
  0
LINE
  5
119
  8
PATTERN_FILL
  6
CONTINUOUS
 62
     7
 10
105.73467821040541
 20
192.88019514222259
 30
0.0
 11
90.792740578363123
 21
167.0
 31
0.0
  0
LINE
  5
11A
  8
PATTERN_FILL
  6
CONTINUOUS
 62
     7
 10
87.617314097820127
 20
161.5
 30
0.0
 11
80.535771826038271
 21
149.23440898932699
 31
0.0
  0
LINE
  5
11B
  8
PATTERN_FILL
  6
CONTINUOUS
 62
     7
 10
107.4872936919906
 20
192.45171258732219
 30
0.0
 11
92.792740578363137
 21
167.0
 31
0.0
  0
LINE
  5
11C
  8
PATTERN_FILL
  6
CONTINUOUS
 62
     7
 10
89.617314097820142
 20
161.5
 30
0.0
 11
81.364390246982367
 21
147.20551657935189
 31
0.0
  0
LINE
  5
11D
  8
PATTERN_FILL
  6
CONTINUOUS
 62
     7
 10
109.1862462511304
 20
191.9302831242637
 30
0.0
 11
94.792740578363123
 21
167.0
 31
0.0
  0
LINE
  5
11E
  8
PATTERN_FILL
  6
CONTINUOUS
 62
     7
 10
91.617314097820142
 20
161.5
 30
0.0
 11
82.264333455677203
 21
145.30016232560021
 31
0.0
  0
LINE
  5
11F
  8
PATTERN_FILL
  6
CONTINUOUS
 62
     7
 10
110.7684365797103
 20
191.2066155454707
 30
0.0
 11
96.792740578363095
 21
167.0
 31
0.0
  0
LINE
  5
120
  8
PATTERN_FILL
  6
CONTINUOUS
 62
     7
 10
93.617314097820156
 20
161.5
 30
0.0
 11
83.228193282124366
 21
143.50551490124349
 31
0.0
  0
LINE
  5
121
  8
PATTERN_FILL
  6
CONTINUOUS
 62
     7
 10
112.20751007489299
 20
190.23506233981499
 30
0.0
 11
98.79274057836308
 21
167.0
 31
0.0
  0
LINE
  5
122
  8
PATTERN_FILL
  6
CONTINUOUS
 62
     7
 10
95.617314097820142
 20
161.5
 30
0.0
 11
84.274004827137801
 21
141.85281201721111
 31
0.0
  0
LINE
  5
123
  8
PATTERN_FILL
  6
CONTINUOUS
 62
     7
 10
113.55524154296209
 20
189.10530010233239
 30
0.0
 11
100.792740578363
 21
167.0
 31
0.0
  0
LINE
  5
124
  8
PATTERN_FILL
  6
CONTINUOUS
 62
     7
 10
97.617314097820156
 20
161.5
 30
0.0
 11
85.92597114673022
 21
141.25
 31
0.0
  0
LINE
  5
125
  8
PATTERN_FILL
  6
CONTINUOUS
 62
     7
 10
114.8063888394047
 20
187.80824917238559
 30
0.0
 11
102.79274057836309
 21
167.0
 31
0.0
  0
LINE
  5
126
  8
PATTERN_FILL
  6
CONTINUOUS
 62
     7
 10
99.617314097820142
 20
161.5
 30
0.0
 11
87.925971146730205
 21
141.25
 31
0.0
  0
LINE
  5
127
  8
PATTERN_FILL
  6
CONTINUOUS
 62
     7
 10
115.9514728987556
 20
186.32749132698069
 30
0.0
 11
104.792740578363
 21
167.0
 31
0.0
  0
LINE
  5
128
  8
PATTERN_FILL
  6
CONTINUOUS
 62
     7
 10
101.6173140978201
 20
161.5
 30
0.0
 11
89.925971146730234
 21
141.25
 31
0.0
  0
LINE
  5
129
  8
PATTERN_FILL
  6
CONTINUOUS
 62
     7
 10
116.9743318783228
 20
184.63503343343129
 30
0.0
 11
106.792740578363
 21
167.0
 31
0.0
  0
LINE
  5
12A
  8
PATTERN_FILL
  6
CONTINUOUS
 62
     7
 10
103.6173140978201
 20
161.5
 30
0.0
 11
91.925971146730234
 21
141.25
 31
0.0
  0
LINE
  5
12B
  8
PATTERN_FILL
  6
CONTINUOUS
 62
     7
 10
117.9256034200415
 20
182.81858246034491
 30
0.0
 11
108.79274057836309
 21
167.0
 31
0.0
  0
LINE
  5
12C
  8
PATTERN_FILL
  6
CONTINUOUS
 62
     7
 10
105.6173140978201
 20
161.5
 30
0.0
 11
93.925971146730234
 21
141.25
 31
0.0
  0
LINE
  5
12D
  8
PATTERN_FILL
  6
CONTINUOUS
 62
     7
 10
118.8115905612883
 20
180.88905558869939
 30
0.0
 11
110.79274057836309
 21
167.0
 31
0.0
  0
LINE
  5
12E
  8
PATTERN_FILL
  6
CONTINUOUS
 62
     7
 10
107.6173140978201
 20
161.5
 30
0.0
 11
95.925971146730234
 21
141.25
 31
0.0
  0
LINE
  5
12F
  8
PATTERN_FILL
  6
CONTINUOUS
 62
     7
 10
119.6244765891057
 20
178.8329138745041
 30
0.0
 11
112.79274057836309
 21
167.0
 31
0.0
  0
LINE
  5
130
  8
PATTERN_FILL
  6
CONTINUOUS
 62
     7
 10
109.6173140978201
 20
161.5
 30
0.0
 11
97.925971146730234
 21
141.25
 31
0.0
  0
LINE
  5
131
  8
PATTERN_FILL
  6
CONTINUOUS
 62
     7
 10
120.3539512817829
 20
176.63229948991901
 30
0.0
 11
114.79274057836309
 21
167.0
 31
0.0
  0
LINE
  5
132
  8
PATTERN_FILL
  6
CONTINUOUS
 62
     7
 10
111.6173140978201
 20
161.5
 30
0.0
 11
99.925971146730234
 21
141.25
 31
0.0
  0
LINE
  5
133
  8
PATTERN_FILL
  6
CONTINUOUS
 62
     7
 10
120.9859910967545
 20
174.26292294671839
 30
0.0
 11
116.79274057836309
 21
167.0
 31
0.0
  0
LINE
  5
134
  8
PATTERN_FILL
  6
CONTINUOUS
 62
     7
 10
113.6173140978201
 20
161.5
 30
0.0
 11
101.92597114673021
 21
141.25
 31
0.0
  0
LINE
  5
135
  8
PATTERN_FILL
  6
CONTINUOUS
 62
     7
 10
121.50072348427911
 20
171.6903639790745
 30
0.0
 11
118.79274057836309
 21
167.0
 31
0.0
  0
LINE
  5
136
  8
PATTERN_FILL
  6
CONTINUOUS
 62
     7
 10
115.6173140978201
 20
161.5
 30
0.0
 11
103.92597114673021
 21
141.25
 31
0.0
  0
LINE
  5
137
  8
PATTERN_FILL
  6
CONTINUOUS
 62
     7
 10
121.86835842578991
 20
168.86302476127111
 30
0.0
 11
120.79274057836309
 21
167.0
 31
0.0
  0
LINE
  5
138
  8
PATTERN_FILL
  6
CONTINUOUS
 62
     7
 10
117.6173140978201
 20
161.5
 30
0.0
 11
105.92597114673021
 21
141.25
 31
0.0
  0
LINE
  5
139
  8
PATTERN_FILL
  6
CONTINUOUS
 62
     7
 10
119.6173140978201
 20
161.5
 30
0.0
 11
107.92597114673021
 21
141.25
 31
0.0
  0
LINE
  5
13A
  8
PATTERN_FILL
  6
CONTINUOUS
 62
     7
 10
121.6173140978201
 20
161.5
 30
0.0
 11
109.92597114673021
 21
141.25
 31
0.0
  0
LINE
  5
13B
  8
PATTERN_FILL
  6
CONTINUOUS
 62
     7
 10
121.7055570972104
 20
158.18873974321841
 30
0.0
 11
111.92597114673021
 21
141.25
 31
0.0
  0
LINE
  5
13C
  8
PATTERN_FILL
  6
CONTINUOUS
 62
     7
 10
120.6451184237558
 20
152.88790446734629
 30
0.0
 11
113.92597114673021
 21
141.25
 31
0.0
  0
LINE
  5
13D
  8
PATTERN_FILL
  6
CONTINUOUS
 62
     7
 10
154.3464666472164
 20
152.91898591279761
 30
0.0
 11
161.08355880514
 21
141.25
 31
0.0
  0
LINE
  5
13E
  8
PATTERN_FILL
  6
CONTINUOUS
 62
     7
 10
153.291658203249
 20
158.21006934513929
 30
0.0
 11
163.08355880514
 21
141.25
 31
0.0
  0
LINE
  5
13F
  8
PATTERN_FILL
  6
CONTINUOUS
 62
     7
 10
153.39221585405011
 20
161.5
 30
0.0
 11
165.08355880514
 21
141.25
 31
0.0
  0
LINE
  5
140
  8
PATTERN_FILL
  6
CONTINUOUS
 62
     7
 10
155.39221585404999
 20
161.5
 30
0.0
 11
167.08355880514
 21
141.25
 31
0.0
  0
LINE
  5
141
  8
PATTERN_FILL
  6
CONTINUOUS
 62
     7
 10
153.13297901213261
 20
168.87721461167021
 30
0.0
 11
154.21678937350711
 21
167.0
 31
0.0
  0
LINE
  5
142
  8
PATTERN_FILL
  6
CONTINUOUS
 62
     7
 10
157.39221585405011
 20
161.5
 30
0.0
 11
169.08355880513989
 21
141.25
 31
0.0
  0
LINE
  5
143
  8
PATTERN_FILL
  6
CONTINUOUS
 62
     7
 10
153.50140948617701
 20
171.70317592670639
 30
0.0
 11
156.21678937350711
 21
167.0
 31
0.0
  0
LINE
  5
144
  8
PATTERN_FILL
  6
CONTINUOUS
 62
     7
 10
159.39221585404999
 20
161.5
 30
0.0
 11
171.08355880513989
 21
141.25
 31
0.0
  0
LINE
  5
145
  8
PATTERN_FILL
  6
CONTINUOUS
 62
     7
 10
154.0047649759351
 20
174.2954402593144
 30
0.0
 11
158.21678937350711
 21
167.0
 31
0.0
  0
LINE
  5
146
  8
PATTERN_FILL
  6
CONTINUOUS
 62
     7
 10
161.39221585404999
 20
161.5
 30
0.0
 11
173.08355880513989
 21
141.25
 31
0.0
  0
LINE
  5
147
  8
PATTERN_FILL
  6
CONTINUOUS
 62
     7
 10
154.6493066274906
 20
176.64316298636359
 30
0.0
 11
160.21678937350711
 21
167.0
 31
0.0
  0
LINE
  5
148
  8
PATTERN_FILL
  6
CONTINUOUS
 62
     7
 10
163.39221585405011
 20
161.5
 30
0.0
 11
175.08355880513989
 21
141.25
 31
0.0
  0
LINE
  5
149
  8
PATTERN_FILL
  6
CONTINUOUS
 62
     7
 10
155.37920842683559
 20
178.8430376005
 30
0.0
 11
162.21678937350711
 21
167.0
 31
0.0
  0
LINE
  5
14A
  8
PATTERN_FILL
  6
CONTINUOUS
 62
     7
 10
165.39221585404999
 20
161.5
 30
0.0
 11
177.08355880513989
 21
141.25
 31
0.0
  0
LINE
  5
14B
  8
PATTERN_FILL
  6
CONTINUOUS
 62
     7
 10
156.1924648626499
 20
180.898537749225
 30
0.0
 11
164.21678937350711
 21
167.0
 31
0.0
  0
LINE
  5
14C
  8
PATTERN_FILL
  6
CONTINUOUS
 62
     7
 10
167.39221585405011
 20
161.5
 30
0.0
 11
179.08355880513989
 21
141.25
 31
0.0
  0
LINE
  5
14D
  8
PATTERN_FILL
  6
CONTINUOUS
 62
     7
 10
157.07877998671481
 20
182.8274965379656
 30
0.0
 11
166.21678937350711
 21
167.0
 31
0.0
  0
LINE
  5
14E
  8
PATTERN_FILL
  6
CONTINUOUS
 62
     7
 10
169.39221585404999
 20
161.5
 30
0.0
 11
181.08355880514
 21
141.25
 31
0.0
  0
LINE
  5
14F
  8
PATTERN_FILL
  6
CONTINUOUS
 62
     7
 10
158.0303469165778
 20
184.64343588377841
 30
0.0
 11
168.21678937350711
 21
167.0
 31
0.0
  0
LINE
  5
150
  8
PATTERN_FILL
  6
CONTINUOUS
 62
     7
 10
171.39221585404999
 20
161.5
 30
0.0
 11
183.08355880514
 21
141.25
 31
0.0
  0
LINE
  5
151
  8
PATTERN_FILL
  6
CONTINUOUS
 62
     7
 10
159.05371024652911
 20
186.33502021683771
 30
0.0
 11
170.21678937350711
 21
167.0
 31
0.0
  0
LINE
  5
152
  8
PATTERN_FILL
  6
CONTINUOUS
 62
     7
 10
173.39221585404999
 20
161.5
 30
0.0
 11
185.08355880514
 21
141.25
 31
0.0
  0
LINE
  5
153
  8
PATTERN_FILL
  6
CONTINUOUS
 62
     7
 10
160.19933093817039
 20
187.81484858785021
 30
0.0
 11
172.21678937350711
 21
167.0
 31
0.0
  0
LINE
  5
154
  8
PATTERN_FILL
  6
CONTINUOUS
 62
     7
 10
175.39221585404999
 20
161.5
 30
0.0
 11
187.08355880514
 21
141.25
 31
0.0
  0
LINE
  5
155
  8
PATTERN_FILL
  6
CONTINUOUS
 62
     7
 10
161.45095697105299
 20
189.1110703219596
 30
0.0
 11
174.21678937350711
 21
167.0
 31
0.0
  0
LINE
  5
156
  8
PATTERN_FILL
  6
CONTINUOUS
 62
     7
 10
177.39221585405011
 20
161.5
 30
0.0
 11
189.08355880514
 21
141.25
 31
0.0
  0
LINE
  5
157
  8
PATTERN_FILL
  6
CONTINUOUS
 62
     7
 10
162.79913326378301
 20
190.24006210052929
 30
0.0
 11
176.21678937350711
 21
167.0
 31
0.0
  0
LINE
  5
158
  8
PATTERN_FILL
  6
CONTINUOUS
 62
     7
 10
179.39221585404999
 20
161.5
 30
0.0
 11
190.73129195980459
 21
141.86014407394279
 31
0.0
  0
LINE
  5
159
  8
PATTERN_FILL
  6
CONTINUOUS
 62
     7
 10
164.2386348735391
 20
191.21087378999189
 30
0.0
 11
178.21678937350711
 21
167.0
 31
0.0
  0
LINE
  5
15A
  8
PATTERN_FILL
  6
CONTINUOUS
 62
     7
 10
181.39221585404999
 20
161.5
 30
0.0
 11
191.77654140827249
 21
143.5138205377508
 31
0.0
  0
LINE
  5
15B
  8
PATTERN_FILL
  6
CONTINUOUS
 62
     7
 10
165.82172749922509
 20
191.9329785443542
 30
0.0
 11
180.2167893735072
 21
167.0
 31
0.0
  0
LINE
  5
15C
  8
PATTERN_FILL
  6
CONTINUOUS
 62
     7
 10
183.39221585404999
 20
161.5
 30
0.0
 11
192.74011145804491
 21
145.30896987003121
 31
0.0
  0
LINE
  5
15D
  8
PATTERN_FILL
  6
CONTINUOUS
 62
     7
 10
167.52092627056001
 20
192.4539815553812
 30
0.0
 11
182.2167893735072
 21
167.0
 31
0.0
  0
LINE
  5
15E
  8
PATTERN_FILL
  6
CONTINUOUS
 62
     7
 10
185.39221585404999
 20
161.5
 30
0.0
 11
193.6397338912648
 21
147.2148797232033
 31
0.0
  0
LINE
  5
15F
  8
PATTERN_FILL
  6
CONTINUOUS
 62
     7
 10
169.27384036433821
 20
192.8819468987916
 30
0.0
 11
184.21678937350711
 21
167.0
 31
0.0
  0
LINE
  5
160
  8
PATTERN_FILL
  6
CONTINUOUS
 62
     7
 10
187.39221585405011
 20
161.5
 30
0.0
 11
194.4679913688984
 21
149.24439730533089
 31
0.0
  0
LINE
  5
161
  8
PATTERN_FILL
  6
CONTINUOUS
 62
     7
 10
171.11244280996669
 20
193.1614956631804
 30
0.0
 11
186.21678937350711
 21
167.0
 31
0.0
  0
LINE
  5
162
  8
PATTERN_FILL
  6
CONTINUOUS
 62
     7
 10
189.39221585404999
 20
161.5
 30
0.0
 11
195.21515112824659
 21
151.41438025590651
 31
0.0
  0
LINE
  5
163
  8
PATTERN_FILL
  6
CONTINUOUS
 62
     7
 10
173.06134480727951
 20
193.25
 30
0.0
 11
188.21678937350711
 21
167.0
 31
0.0
  0
LINE
  5
164
  8
PATTERN_FILL
  6
CONTINUOUS
 62
     7
 10
191.39221585405011
 20
161.5
 30
0.0
 11
195.86806560944959
 21
153.74760081660341
 31
0.0
  0
LINE
  5
165
  8
PATTERN_FILL
  6
CONTINUOUS
 62
     7
 10
175.06134480727951
 20
193.25
 30
0.0
 11
190.21678937350711
 21
167.0
 31
0.0
  0
LINE
  5
166
  8
PATTERN_FILL
  6
CONTINUOUS
 62
     7
 10
193.39221585404999
 20
161.5
 30
0.0
 11
196.40827475411169
 21
156.27603274647279
 31
0.0
  0
LINE
  5
167
  8
PATTERN_FILL
  6
CONTINUOUS
 62
     7
 10
177.06134480727951
 20
193.25
 30
0.0
 11
192.21678937350711
 21
167.0
 31
0.0
  0
LINE
  5
168
  8
PATTERN_FILL
  6
CONTINUOUS
 62
     7
 10
195.39221585404999
 20
161.5
 30
0.0
 11
196.80845890034789
 21
159.04699508794599
 31
0.0
  0
LINE
  5
169
  8
PATTERN_FILL
  6
CONTINUOUS
 62
     7
 10
179.12714651364081
 20
193.1360281013574
 30
0.0
 11
194.21678937350711
 21
167.0
 31
0.0
  0
LINE
  5
16A
  8
PATTERN_FILL
  6
CONTINUOUS
 62
     7
 10
181.354689662032
 20
192.74191180742969
 30
0.0
 11
196.21678937350711
 21
167.0
 31
0.0
  0
LINE
  5
16B
  8
PATTERN_FILL
  6
CONTINUOUS
 62
     7
 10
183.7379098986444
 20
192.07815488712839
 30
0.0
 11
196.81029581035091
 21
169.4361183119052
 31
0.0
  0
LINE
  5
16C
  8
PATTERN_FILL
  6
CONTINUOUS
 62
     7
 10
186.51746024374521
 20
190.72793408235589
 30
0.0
 11
195.96007194725621
 21
174.37285085573029
 31
0.0
  0
LINE
  5
16D
  8
PATTERN_FILL
  6
CONTINUOUS
 62
     7
 10
163.4981711878707
 20
190.73850215527699
 30
0.0
 11
154.0047649759351
 21
174.2954402593144
 31
0.0
  0
LINE
  5
16E
  8
PATTERN_FILL
  6
CONTINUOUS
 62
     7
 10
166.27379039147351
 20
192.081914023243
 30
0.0
 11
153.18750360568899
 21
169.4158004278471
 31
0.0
  0
LINE
  5
16F
  8
PATTERN_FILL
  6
CONTINUOUS
 62
     7
 10
168.65634559785431
 20
192.7445190773945
 30
0.0
 11
153.79274057836309
 21
167.0
 31
0.0
  0
LINE
  5
170
  8
PATTERN_FILL
  6
CONTINUOUS
 62
     7
 10
170.8830471957227
 20
193.13717776305961
 30
0.0
 11
155.79274057836309
 21
167.0
 31
0.0
  0
LINE
  5
171
  8
PATTERN_FILL
  6
CONTINUOUS
 62
     7
 10
172.9481851445907
 20
193.25
 30
0.0
 11
157.79274057836309
 21
167.0
 31
0.0
  0
LINE
  5
172
  8
PATTERN_FILL
  6
CONTINUOUS
 62
     7
 10
154.6173140978201
 20
161.5
 30
0.0
 11
153.19305653540221
 21
159.03311353882791
 31
0.0
  0
LINE
  5
173
  8
PATTERN_FILL
  6
CONTINUOUS
 62
     7
 10
174.94818514459081
 20
193.25
 30
0.0
 11
159.79274057836309
 21
167.0
 31
0.0
  0
LINE
  5
174
  8
PATTERN_FILL
  6
CONTINUOUS
 62
     7
 10
156.6173140978201
 20
161.5
 30
0.0
 11
153.5939937950387
 21
156.263455628028
 31
0.0
  0
LINE
  5
175
  8
PATTERN_FILL
  6
CONTINUOUS
 62
     7
 10
176.94818514459081
 20
193.25
 30
0.0
 11
161.79274057836309
 21
167.0
 31
0.0
  0
LINE
  5
176
  8
PATTERN_FILL
  6
CONTINUOUS
 62
     7
 10
158.6173140978201
 20
161.5
 30
0.0
 11
154.13479568608571
 21
153.73605036501311
 31
0.0
  0
LINE
  5
177
  8
PATTERN_FILL
  6
CONTINUOUS
 62
     7
 10
178.89656800978429
 20
193.16059649997399
 30
0.0
 11
163.79274057836309
 21
167.0
 31
0.0
  0
LINE
  5
178
  8
PATTERN_FILL
  6
CONTINUOUS
 62
     7
 10
160.6173140978201
 20
161.5
 30
0.0
 11
154.78819775649791
 21
151.40367433359981
 31
0.0
  0
LINE
  5
179
  8
PATTERN_FILL
  6
CONTINUOUS
 62
     7
 10
180.73467821040541
 20
192.88019514222259
 30
0.0
 11
165.79274057836309
 21
167.0
 31
0.0
  0
LINE
  5
17A
  8
PATTERN_FILL
  6
CONTINUOUS
 62
     7
 10
162.6173140978201
 20
161.5
 30
0.0
 11
155.53577182603831
 21
149.23440898932699
 31
0.0
  0
LINE
  5
17B
  8
PATTERN_FILL
  6
CONTINUOUS
 62
     7
 10
182.48729369199049
 20
192.45171258732219
 30
0.0
 11
167.79274057836309
 21
167.0
 31
0.0
  0
LINE
  5
17C
  8
PATTERN_FILL
  6
CONTINUOUS
 62
     7
 10
164.6173140978201
 20
161.5
 30
0.0
 11
156.3643902469824
 21
147.20551657935189
 31
0.0
  0
LINE
  5
17D
  8
PATTERN_FILL
  6
CONTINUOUS
 62
     7
 10
184.1862462511304
 20
191.9302831242637
 30
0.0
 11
169.79274057836309
 21
167.0
 31
0.0
  0
LINE
  5
17E
  8
PATTERN_FILL
  6
CONTINUOUS
 62
     7
 10
166.6173140978201
 20
161.5
 30
0.0
 11
157.26433345567719
 21
145.30016232560021
 31
0.0
  0
LINE
  5
17F
  8
PATTERN_FILL
  6
CONTINUOUS
 62
     7
 10
185.7684365797104
 20
191.2066155454707
 30
0.0
 11
171.79274057836309
 21
167.0
 31
0.0
  0
LINE
  5
180
  8
PATTERN_FILL
  6
CONTINUOUS
 62
     7
 10
168.6173140978201
 20
161.5
 30
0.0
 11
158.22819328212441
 21
143.50551490124349
 31
0.0
  0
LINE
  5
181
  8
PATTERN_FILL
  6
CONTINUOUS
 62
     7
 10
187.20751007489301
 20
190.23506233981499
 30
0.0
 11
173.79274057836301
 21
167.0
 31
0.0
  0
LINE
  5
182
  8
PATTERN_FILL
  6
CONTINUOUS
 62
     7
 10
170.6173140978201
 20
161.5
 30
0.0
 11
159.27400482713779
 21
141.85281201721111
 31
0.0
  0
LINE
  5
183
  8
PATTERN_FILL
  6
CONTINUOUS
 62
     7
 10
188.55524154296211
 20
189.10530010233239
 30
0.0
 11
175.79274057836301
 21
167.0
 31
0.0
  0
LINE
  5
184
  8
PATTERN_FILL
  6
CONTINUOUS
 62
     7
 10
172.6173140978201
 20
161.5
 30
0.0
 11
160.92597114673021
 21
141.25
 31
0.0
  0
LINE
  5
185
  8
PATTERN_FILL
  6
CONTINUOUS
 62
     7
 10
189.80638883940469
 20
187.80824917238559
 30
0.0
 11
177.79274057836309
 21
167.0
 31
0.0
  0
LINE
  5
186
  8
PATTERN_FILL
  6
CONTINUOUS
 62
     7
 10
174.6173140978201
 20
161.5
 30
0.0
 11
162.92597114673021
 21
141.25
 31
0.0
  0
LINE
  5
187
  8
PATTERN_FILL
  6
CONTINUOUS
 62
     7
 10
190.95147289875561
 20
186.32749132698069
 30
0.0
 11
179.79274057836309
 21
167.0
 31
0.0
  0
LINE
  5
188
  8
PATTERN_FILL
  6
CONTINUOUS
 62
     7
 10
176.6173140978201
 20
161.5
 30
0.0
 11
164.92597114673021
 21
141.25
 31
0.0
  0
LINE
  5
189
  8
PATTERN_FILL
  6
CONTINUOUS
 62
     7
 10
191.97433187832269
 20
184.63503343343129
 30
0.0
 11
181.79274057836301
 21
167.0
 31
0.0
  0
LINE
  5
18A
  8
PATTERN_FILL
  6
CONTINUOUS
 62
     7
 10
178.6173140978201
 20
161.5
 30
0.0
 11
166.92597114673021
 21
141.25
 31
0.0
  0
LINE
  5
18B
  8
PATTERN_FILL
  6
CONTINUOUS
 62
     7
 10
192.92560342004151
 20
182.81858246034491
 30
0.0
 11
183.79274057836309
 21
167.0
 31
0.0
  0
LINE
  5
18C
  8
PATTERN_FILL
  6
CONTINUOUS
 62
     7
 10
180.6173140978201
 20
161.5
 30
0.0
 11
168.92597114673021
 21
141.25
 31
0.0
  0
LINE
  5
18D
  8
PATTERN_FILL
  6
CONTINUOUS
 62
     7
 10
193.8115905612884
 20
180.88905558869939
 30
0.0
 11
185.79274057836301
 21
167.0
 31
0.0
  0
LINE
  5
18E
  8
PATTERN_FILL
  6
CONTINUOUS
 62
     7
 10
182.6173140978201
 20
161.5
 30
0.0
 11
170.92597114673021
 21
141.25
 31
0.0
  0
LINE
  5
18F
  8
PATTERN_FILL
  6
CONTINUOUS
 62
     7
 10
194.62447658910571
 20
178.8329138745041
 30
0.0
 11
187.79274057836309
 21
167.0
 31
0.0
  0
LINE
  5
190
  8
PATTERN_FILL
  6
CONTINUOUS
 62
     7
 10
184.6173140978201
 20
161.5
 30
0.0
 11
172.92597114673021
 21
141.25
 31
0.0
  0
LINE
  5
191
  8
PATTERN_FILL
  6
CONTINUOUS
 62
     7
 10
195.35395128178291
 20
176.63229948991901
 30
0.0
 11
189.79274057836309
 21
167.0
 31
0.0
  0
LINE
  5
192
  8
PATTERN_FILL
  6
CONTINUOUS
 62
     7
 10
186.6173140978201
 20
161.5
 30
0.0
 11
174.92597114673021
 21
141.25
 31
0.0
  0
LINE
  5
193
  8
PATTERN_FILL
  6
CONTINUOUS
 62
     7
 10
195.9859910967545
 20
174.26292294671839
 30
0.0
 11
191.79274057836309
 21
167.0
 31
0.0
  0
LINE
  5
194
  8
PATTERN_FILL
  6
CONTINUOUS
 62
     7
 10
188.6173140978201
 20
161.5
 30
0.0
 11
176.92597114673021
 21
141.25
 31
0.0
  0
LINE
  5
195
  8
PATTERN_FILL
  6
CONTINUOUS
 62
     7
 10
196.50072348427921
 20
171.6903639790745
 30
0.0
 11
193.79274057836309
 21
167.0
 31
0.0
  0
LINE
  5
196
  8
PATTERN_FILL
  6
CONTINUOUS
 62
     7
 10
190.6173140978201
 20
161.5
 30
0.0
 11
178.92597114673021
 21
141.25
 31
0.0
  0
LINE
  5
197
  8
PATTERN_FILL
  6
CONTINUOUS
 62
     7
 10
196.86835842578981
 20
168.86302476127111
 30
0.0
 11
195.79274057836309
 21
167.0
 31
0.0
  0
LINE
  5
198
  8
PATTERN_FILL
  6
CONTINUOUS
 62
     7
 10
192.6173140978201
 20
161.5
 30
0.0
 11
180.92597114673021
 21
141.25
 31
0.0
  0
LINE
  5
199
  8
PATTERN_FILL
  6
CONTINUOUS
 62
     7
 10
194.6173140978201
 20
161.5
 30
0.0
 11
182.92597114673021
 21
141.25
 31
0.0
  0
LINE
  5
19A
  8
PATTERN_FILL
  6
CONTINUOUS
 62
     7
 10
196.6173140978201
 20
161.5
 30
0.0
 11
184.92597114673021
 21
141.25
 31
0.0
  0
LINE
  5
19B
  8
PATTERN_FILL
  6
CONTINUOUS
 62
     7
 10
196.7055570972104
 20
158.18873974321841
 30
0.0
 11
186.92597114673021
 21
141.25
 31
0.0
  0
LINE
  5
19C
  8
PATTERN_FILL
  6
CONTINUOUS
 62
     7
 10
195.6451184237558
 20
152.88790446734629
 30
0.0
 11
188.92597114673021
 21
141.25
 31
0.0
  0
LINE
  5
19D
  8
SPEC
  6
CONTINUOUS
 62
     7
 10
-64.999999999999986
 20
383.53181499999999
 30
0.0
 11
230.0
 21
383.53181499999999
 31
0.0
  0
LINE
  5
19E
  8
SPEC
  6
CONTINUOUS
 62
     7
 10
-64.999999999999986
 20
376.03181499999999
 30
0.0
 11
230.0
 21
376.03181499999999
 31
0.0
  0
LINE
  5
19F
  8
SPEC
  6
CONTINUOUS
 62
     7
 10
-64.999999999999986
 20
346.03181499999988
 30
0.0
 11
230.0
 21
346.03181499999988
 31
0.0
  0
LINE
  5
1A0
  8
SPEC
  6
CONTINUOUS
 62
     7
 10
-64.999999999999986
 20
353.53181499999988
 30
0.0
 11
230.0
 21
353.53181499999988
 31
0.0
  0
LINE
  5
1A1
  8
SPEC
  6
CONTINUOUS
 62
     7
 10
-64.999999999999986
 20
361.03181499999999
 30
0.0
 11
230.0
 21
361.03181499999999
 31
0.0
  0
LINE
  5
1A2
  8
SPEC
  6
CONTINUOUS
 62
     7
 10
-64.999999999999986
 20
338.53181499999988
 30
0.0
 11
230.0
 21
338.53181499999988
 31
0.0
  0
LINE
  5
1A3
  8
SPEC
  6
CONTINUOUS
 62
     7
 10
-64.999999999999986
 20
323.53181499999988
 30
0.0
 11
230.0
 21
323.53181499999988
 31
0.0
  0
LINE
  5
1A4
  8
SPEC
  6
CONTINUOUS
 62
     7
 10
-64.999999999999986
 20
331.03181499999999
 30
0.0
 11
230.0
 21
331.03181499999999
 31
0.0
  0
LINE
  5
1A5
  8
SPEC
  6
CONTINUOUS
 62
     7
 10
-64.999999999999986
 20
368.53181499999999
 30
0.0
 11
230.0
 21
368.53181499999999
 31
0.0
  0
TEXT
  5
1A6
  8
SPEC
 62
     7
 10
1.266056288867573
 20
377.91448052657768
 30
0.0
 40
3.8006224999999989
  1
コンデンサー型 
 41
0.7
 11
1.2660562888675739
 21
381.71510302657771
 31
0.0
 73
     3
  0
LINE
  5
1A7
  8
SPEC
  6
CONTINUOUS
 62
     7
 10
-64.999999999999986
 20
383.53181499999999
 30
0.0
 11
-64.999999999999986
 21
278.53181499999988
 31
0.0
  0
TEXT
  5
1A8
  8
SPEC
 62
     7
 10
-62.5
 20
386.318355
 30
0.0
 40
4.8865234375000002
  1
仕様
 41
0.7
 11
-62.5
 21
391.20487843749999
 31
0.0
 73
     3
  0
LINE
  5
1A9
  8
SPEC
  6
CONTINUOUS
 62
     7
 10
0.0
 20
383.53181499999999
 30
0.0
 11
0.0
 21
278.53181499999988
 31
0.0
  0
LINE
  5
1AA
  8
SPEC
  6
CONTINUOUS
 62
     7
 10
230.0
 20
383.53181499999999
 30
0.0
 11
230.0
 21
278.53181499999988
 31
0.0
  0
TEXT
  5
1AB
  8
SPEC
 62
     7
 10
-63.202163109823857
 20
347.96240832688892
 30
0.0
 40
3.8006224999999989
  1
最大音圧レベル
 41
0.7
 11
-63.202163109823857
 21
351.76303082688889
 31
0.0
 73
     3
  0
TEXT
  5
1AC
  8
SPEC
 62
     7
 10
-63.285212625414417
 20
378.00079118106908
 30
0.0
 40
3.8006224999999989
  1
形式
 41
0.7
 11
-63.285212625414417
 21
381.80141368106911
 31
0.0
 73
     3
  0
TEXT
  5
1AD
  8
SPEC
 62
     7
 10
-63.698746376734832
 20
303.10942492392519
 30
0.0
 40
3.8006224999999989
  1
コネクター
 41
0.7
 11
-63.698746376734832
 21
306.91004742392522
 31
0.0
 73
     3
  0
TEXT
  5
1AE
  8
SPEC
 62
     7
 10
-63.396048314620963
 20
355.50458054737248
 30
0.0
 40
3.8006224999999989
  1
開回路感度
 41
0.7
 11
-63.396048314620963
 21
359.30520304737252
 31
0.0
 73
     3
  0
TEXT
  5
1AF
  8
SPEC
 62
     7
 10
-63.469867857743353
 20
318.05625422502698
 30
0.0
 40
3.8006224999999989
  1
インピーダンス
 41
0.7
 11
-63.469867857743353
 21
321.85687672502689
 31
0.0
 73
     3
  0
TEXT
  5
1B0
  8
SPEC
 62
     7
 10
-63.264470344287353
 20
370.52711394220933
 30
0.0
 40
3.8006224999999989
  1
指向性
 41
0.7
 11
-63.264470344287353
 21
374.32773644220919
 31
0.0
 73
     3
  0
TEXT
  5
1B1
  8
SPEC
 62
     7
 10
-63.182821006575338
 20
362.9367393978963
 30
0.0
 40
3.8006224999999989
  1
周波数特性
 41
0.7
 11
-63.182821006575338
 21
366.73736189789639
 31
0.0
 73
     3
  0
TEXT
  5
1B2
  8
SPEC
 62
     7
 10
1.5358935457681751
 20
347.88978074868612
 30
0.0
 40
3.8006224999999989
  1
130dB SPL(THD1%%%)
 41
0.7
 11
1.5358935457681751
 21
351.6904032486861
 31
0.0
 73
     3
  0
TEXT
  5
1B3
  8
SPEC
 62
     7
 10
1.9719021658414979
 20
302.81894298177542
 30
0.0
 40
3.8006224999999989
  1
XLR3ピンオス
 41
0.7
 11
1.9719021658414979
 21
306.61956548177528
 31
0.0
 73
     3
  0
TEXT
  5
1B4
  8
SPEC
 62
     7
 10
1.906476203823402
 20
355.50187545897637
 30
0.0
 40
3.8006224999999989
  1
-43dBV re 1V/Pa
 41
0.7
 11
1.906476203823402
 21
359.3024979589764
 31
0.0
 73
     3
  0
TEXT
  5
1B5
  8
SPEC
 62
     7
 10
1.9587134303389739
 20
317.81731312440621
 30
0.0
 40
3.8006224999999989
  1
200\U+03A9以下
 41
0.7
 11
1.9587134303389739
 21
321.61793562440619
 31
0.0
 73
     3
  0
TEXT
  5
1B6
  8
SPEC
 62
     7
 10
1.7238703849275081
 20
362.78493939630869
 30
0.0
 40
3.8006224999999989
  1
20Hz～20kHz
 41
0.7
 11
1.7238703849275081
 21
366.58556189630872
 31
0.0
 73
     3
  0
TEXT
  5
1B7
  8
SPEC
 62
     7
 10
1.409321863851146
 20
370.60475143507728
 30
0.0
 40
3.8006224999999989
  1
カーディオイド
 41
0.7
 11
1.4093218638511471
 21
374.40537393507731
 31
0.0
 73
     3
  0
LINE
  5
1B8
  8
SPEC
  6
CONTINUOUS
 62
     7
 10
-64.999999999999986
 20
316.03181499999988
 30
0.0
 11
230.0
 21
316.03181499999988
 31
0.0
  0
LINE
  5
1B9
  8
SPEC
  6
CONTINUOUS
 62
     7
 10
-64.999999999999986
 20
308.53181499999988
 30
0.0
 11
230.0
 21
308.53181499999988
 31
0.0
  0
TEXT
  5
1BA
  8
SPEC
 62
     7
 10
-63.318532304758897
 20
288.10944690840421
 30
0.0
 40
3.8006293402777769
  1
重量
 41
0.7
 11
-63.318532304758897
 21
291.910076248682
 31
0.0
 73
     3
  0
TEXT
  5
1BB
  8
SPEC
 62
     7
 10
1.0343938275217961
 20
295.42040166837199
 30
0.0
 40
3.8006293402777769
  1
\U+03C647\U+00D7187mm
 41
0.7
 11
1.0343938275217961
 21
299.2210310086499
 31
0.0
 73
     3
  0
TEXT
  5
1BC
  8
SPEC
 62
     7
 10
1.747586325349729
 20
288.05778913898598
 30
0.0
 40
3.8006293402777769
  1
約260g
 41
0.7
 11
1.747586325349729
 21
291.85841847926378
 31
0.0
 73
     3
  0
TEXT
  5
1BD
  8
SPEC
 62
     7
 10
-63.425068808230499
 20
295.59777094020473
 30
0.0
 40
3.8006293402777769
  1
寸法
 41
0.7
 11
-63.425068808230499
 21
299.39840028048252
 31
0.0
 73
     3
  0
TEXT
  5
1BE
  8
SPEC
 62
     7
 10
-63.259184756220179
 20
280.78658549093501
 30
0.0
 40
3.8006293402777769
  1
付属品
 41
0.7
 11
-63.259184756220179
 21
284.58721483121269
 31
0.0
 73
     3
  0
TEXT
  5
1BF
  8
SPEC
 62
     7
 10
1.5512407354827349
 20
280.66141208335779
 30
0.0
 40
3.8006293402777769
  1
マイクホルダー(SA61),マイクポーチ
 41
0.7
 11
1.5512407354827349
 21
284.46204142363558
 31
0.0
 73
     3
  0
LINE
  5
1C0
  8
SPEC
  6
CONTINUOUS
 62
     7
 10
-64.999999999999986
 20
301.03181499999988
 30
0.0
 11
230.0
 21
301.03181499999988
 31
0.0
  0
TEXT
  5
1C1
  8
SPEC
 62
     7
 10
-63.256997777398041
 20
340.46063317761201
 30
0.0
 40
3.8006224999999989
  1
等価雑音レベル
 41
0.7
 11
-63.256997777398041
 21
344.26125567761198
 31
0.0
 73
     3
  0
TEXT
  5
1C2
  8
SPEC
 62
     7
 10
1.7998128999349201
 20
340.37218058389828
 30
0.0
 40
3.8006224999999989
  1
21dB SPL(Aウェイト)
 41
0.7
 11
1.7998128999349201
 21
344.17280308389832
 31
0.0
 73
     3
  0
LINE
  5
1C3
  8
SPEC
  6
CONTINUOUS
 62
     7
 10
-64.999999999999986
 20
293.53181499999999
 30
0.0
 11
230.0
 21
293.53181499999999
 31
0.0
  0
LINE
  5
1C4
  8
SPEC
  6
CONTINUOUS
 62
     7
 10
-64.999999999999986
 20
286.03181499999988
 30
0.0
 11
230.0
 21
286.03181499999988
 31
0.0
  0
TEXT
  5
1C5
  8
SPEC
 62
     7
 10
-63.256997777398041
 20
332.96063317761201
 30
0.0
 40
3.8006224999999989
  1
パッド
 41
0.7
 11
-63.256997777398041
 21
336.76125567761198
 31
0.0
 73
     3
  0
TEXT
  5
1C6
  8
SPEC
 62
     7
 10
1.7998128999349201
 20
332.87218058389828
 30
0.0
 40
3.8006224999999989
  1
0/-14dB
 41
0.7
 11
1.7998128999349201
 21
336.67280308389832
 31
0.0
 73
     3
  0
TEXT
  5
1C7
  8
SPEC
 62
     7
 10
-63.927500746975781
 20
325.46063317761201
 30
0.0
 40
3.8006224999999989
  1
ローカットフィルター
 41
0.7
 11
-63.927500746975781
 21
329.26125567761198
 31
0.0
 73
     3
  0
TEXT
  5
1C8
  8
SPEC
 62
     7
 10
1.7998128999349201
 20
325.3721805838984
 30
0.0
 40
3.8006224999999989
  1
Flat/100Hz(12dB/oct)
 41
0.7
 11
1.7998128999349201
 21
329.17280308389832
 31
0.0
 73
     3
  0
LINE
  5
1C9
  8
SPEC
  6
CONTINUOUS
 62
     7
 10
-64.999999999999986
 20
278.53181499999988
 30
0.0
 11
230.0
 21
278.53181499999988
 31
0.0
  0
TEXT
  5
1CA
  8
SPEC
 62
     7
 10
-63.291067065855962
 20
310.55625422502698
 30
0.0
 40
3.8006224999999989
  1
電源
 41
0.7
 11
-63.291067065855962
 21
314.35687672502701
 31
0.0
 73
     3
  0
TEXT
  5
1CB
  8
SPEC
 62
     7
 10
1.9587134303389739
 20
310.31731312440621
 30
0.0
 40
3.8006224999999989
  1
ファンタム　DC9～52V/2.5mA以下
 41
0.7
 11
1.9587134303389739
 21
314.11793562440619
 31
0.0
 73
     3
  0
TEXT
  5
1CC
  8
DIMNSIONS
 62
     7
 10
60.0
 20
-91.929204999999968
 30
0.0
 40
4.8865234375000002
  1
(単位：mm)
 41
0.7
 11
60.0
 21
-87.042681562499979
 31
0.0
 73
     3
  0
LINE
  5
1CD
  8
DIMNSIONS
  6
CONTINUOUS
 62
     7
 10
10.0
 20
6.25
 30
0.0
 11
-22.75
 21
6.25
 31
0.0
  0
LINE
  5
1CE
  8
DIMNSIONS
  6
CONTINUOUS
 62
     7
 10
21.000000000000082
 20
193.25
 30
0.0
 11
-22.75
 21
193.25
 31
0.0
  0
LINE
  5
1CF
  8
DIMNSIONS
  6
CONTINUOUS
 62
     7
 10
-18.75
 20
6.25
 30
0.0
 11
-18.75
 21
193.25
 31
0.0
  0
LINE
  5
1D0
  8
DIMNSIONS
  6
CONTINUOUS
 62
     7
 10
-18.75
 20
6.25
 30
0.0
 11
-20.090079590300491
 21
11.251245117187491
 31
0.0
  0
LINE
  5
1D1
  8
DIMNSIONS
  6
CONTINUOUS
 62
     7
 10
-18.75
 20
6.25
 30
0.0
 11
-17.409920409699499
 21
11.251245117187491
 31
0.0
  0
LINE
  5
1D2
  8
DIMNSIONS
  6
CONTINUOUS
 62
     7
 10
-18.75
 20
193.25
 30
0.0
 11
-17.409920409699499
 21
188.24875488281239
 31
0.0
  0
LINE
  5
1D3
  8
DIMNSIONS
  6
CONTINUOUS
 62
     7
 10
-18.75
 20
193.25
 30
0.0
 11
-20.090079590300491
 21
188.24875488281239
 31
0.0
  0
TEXT
  5
1D4
  8
DIMNSIONS
 62
     7
 10
-20.737777777777769
 20
94.458333333333343
 30
0.0
 40
5.4294704861111107
  1
187
 50
90.0
 41
0.7
 11
-26.16724826388889
 21
94.458333333333343
 31
0.0
 73
     3
  0
LINE
  5
1D5
  8
DIMNSIONS
  6
CONTINUOUS
 62
     7
 10
43.350417021911269
 20
216.5696663824709
 30
0.0
 11
56.25
 21
206.25
 31
0.0
  0
LINE
  5
1D6
  8
DIMNSIONS
  6
CONTINUOUS
 62
     7
 10
43.350417021911269
 20
216.5696663824709
 30
0.0
 11
48.116487333296348
 21
214.54658956300369
 31
0.0
  0
LINE
  5
1D7
  8
DIMNSIONS
  6
CONTINUOUS
 62
     7
 10
43.350417021911269
 20
216.5696663824709
 30
0.0
 11
46.466416578059921
 21
212.43459530731241
 31
0.0
  0
LINE
  5
1D8
  8
DIMNSIONS
  6
CONTINUOUS
 62
     7
 10
56.25
 20
206.25
 30
0.0
 11
74.3611111111111
 21
206.25
 31
0.0
  0
TEXT
  5
1D9
  8
DIMNSIONS
 62
     7
 10
60.25
 20
208.23777777777781
 30
0.0
 40
5.4294704861111107
  1
\U+03C647
 41
0.7
 11
60.25
 21
213.66724826388889
 31
0.0
 73
     3
  0
LINE
  5
1DA
  8
DIMNSIONS
  6
CONTINUOUS
 62
     7
 10
31.871645523098689
 20
-39.83955690387338
 30
0.0
 11
50.0
 21
-62.5
 31
0.0
  0
LINE
  5
1DB
  8
DIMNSIONS
  6
CONTINUOUS
 62
     7
 10
31.871645523098689
 20
-39.83955690387338
 30
0.0
 11
36.060468497616156
 21
-42.882914937146239
 31
0.0
  0
LINE
  5
1DC
  8
DIMNSIONS
  6
CONTINUOUS
 62
     7
 10
31.871645523098689
 20
-39.83955690387338
 30
0.0
 11
33.977593614350283
 21
-44.569593760757861
 31
0.0
  0
LINE
  5
1DD
  8
DIMNSIONS
  6
CONTINUOUS
 62
     7
 10
50.0
 20
-62.5
 30
0.0
 11
68.1111111111111
 21
-62.5
 31
0.0
  0
TEXT
  5
1DE
  8
DIMNSIONS
 62
     7
 10
53.999999999999993
 20
-60.512222222222249
 30
0.0
 40
5.4294704861111107
  1
\U+03C622
 41
0.7
 11
53.999999999999993
 21
-55.082751736111142
 31
0.0
 73
     3
  0
TEXT
  5
1DF
  8
DATA
 62
     7
 10
200.0
 20
-94.206404999999947
 30
0.0
 40
4.8865234375000002
  1
C535EB
 41
0.7
 11
200.0
 21
-89.319881562499958
 31
0.0
 73
     3
  0
TEXT
  5
1E0
  8
DATA
 62
     7
 10
200.0
 20
-79.706404999999975
 30
0.0
 40
4.8865234375000002
  1
AKG
 41
0.7
 11
200.0
 21
-74.819881562499972
 31
0.0
 73
     3
  0
TEXT
  5
1E1
  8
DATA
 62
     7
 10
195.0
 20
-86.492378099756252
 30
0.0
 40
3.257687421875
  1
コンデンサー型マイクロホン
 41
0.7
 11
195.0
 21
-83.234690677881247
 31
0.0
 73
     3
  0
TEXT
  5
1E2
  8
DATA
 62
     7
 10
-60.0
 20
-107.99218500000001
 30
0.0
 40
3.2576822916666659
  1
仕様および外観は予告なく変更されることがありますので、ご了承ください。
 41
0.7
 11
-60.0
 21
-104.7345027083333
 31
0.0
 73
     3
  0
CIRCLE
  5
1E3
  8
DATA
  6
CONTINUOUS
 62
     7
 10
25.0
 20
-27.150000000000009
 30
0.0
 40
1.1749999999999969
  0
CIRCLE
  5
1E4
  8
DATA
  6
CONTINUOUS
 62
     7
 10
20.899999999999991
 20
-30.744477669901752
 30
0.0
 40
1.1749999999999969
  0
CIRCLE
  5
1E5
  8
DATA
  6
CONTINUOUS
 62
     7
 10
29.100000000000009
 20
-30.744477669901752
 30
0.0
 40
1.1749999999999821
  0
ARC
  5
1E6
  8
DATA
  6
CONTINUOUS
 62
     7
 10
19.84239953067177
 20
-37.09468417718611
 30
0.0
 40
0.999999999999998
 50
146.83008135511989
 51
310.31678704883478
  0
LINE
  5
1E7
  8
DATA
  6
CONTINUOUS
 62
     7
 10
14.79999999999999
 20
6.25
 30
0.0
 11
35.199999999999989
 21
6.25
 31
0.0
  0
LINE
  5
1E8
  8
DATA
  6
CONTINUOUS
 62
     7
 10
13.99058823529411
 20
7.0594117647058852
 30
0.0
 11
12.64593023255814
 21
122.7
 31
0.0
  0
LINE
  5
1E9
  8
DATA
  6
CONTINUOUS
 62
     7
 10
12.633139534883719
 20
123.7999999999999
 30
0.0
 11
12.534883720930241
 21
132.25
 31
0.0
  0
LINE
  5
1EA
  8
DATA
  6
CONTINUOUS
 62
     7
 10
36.009411764705881
 20
7.0594117647058852
 30
0.0
 11
37.35406976744185
 21
122.7
 31
0.0
  0
LINE
  5
1EB
  8
DATA
  6
CONTINUOUS
 62
     7
 10
37.366860465116282
 20
123.8
 30
0.0
 11
37.465116279069768
 21
132.25
 31
0.0
  0
LINE
  5
1EC
  8
DATA
  6
CONTINUOUS
 62
     7
 10
1.5
 20
164.25
 30
0.0
 11
48.5
 21
164.25
 31
0.0
  0
LINE
  5
1ED
  8
DATA
  6
CONTINUOUS
 62
     7
 10
2.1799999999999922
 20
167.0
 30
0.0
 11
47.82
 21
167.0
 31
0.0
  0
LINE
  5
1EE
  8
DATA
  6
CONTINUOUS
 62
     7
 10
47.82
 20
161.5
 30
0.0
 11
2.1799999999999922
 21
161.5
 31
0.0
  0
LINE
  5
1EF
  8
DATA
  6
CONTINUOUS
 62
     7
 10
1.5
 20
163.0
 30
0.0
 11
1.5
 21
165.5
 31
0.0
  0
LINE
  5
1F0
  8
DATA
  6
CONTINUOUS
 62
     7
 10
48.5
 20
163.0
 30
0.0
 11
48.5
 21
165.5
 31
0.0
  0
ARC
  5
1F1
  8
DATA
  6
CONTINUOUS
 62
     7
 10
43.114729194187589
 20
165.10165125495379
 30
0.0
 40
40.159621839365279
 50
148.9756721048216
 51
177.29061397969099
  0
ARC
  5
1F2
  8
DATA
  6
CONTINUOUS
 62
     7
 10
22.922799377916078
 20
176.7815163297044
 30
0.0
 40
16.84105311005931
 50
118.06322544678289
 51
147.62177170814971
  0
ARC
  5
1F3
  8
DATA
  6
CONTINUOUS
 62
     7
 10
6.8852708058123957
 20
165.10165125495379
 30
0.0
 40
40.159621839365293
 50
2.709386020308961
 51
31.024327895178409
  0
ARC
  5
1F4
  8
DATA
  6
CONTINUOUS
 62
     7
 10
27.077200622083922
 20
176.7815163297044
 30
0.0
 40
16.84105311005932
 50
32.37822829185022
 51
61.936774553216743
  0
LINE
  5
1F5
  8
DATA
  6
CONTINUOUS
 62
     7
 10
22.895228020774329
 20
193.25
 30
0.0
 11
27.104771979225831
 21
193.25
 31
0.0
  0
ARC
  5
1F6
  8
DATA
  6
CONTINUOUS
 62
     7
 10
43.114729194187589
 20
163.39834874504621
 30
0.0
 40
40.159621839365279
 50
182.7093860203089
 51
211.0243278951784
  0
ARC
  5
1F7
  8
DATA
  6
CONTINUOUS
 62
     7
 10
22.922799377916078
 20
151.7184836702956
 30
0.0
 40
16.84105311005932
 50
212.37822829185021
 51
218.43343873881329
  0
ARC
  5
1F8
  8
DATA
  6
CONTINUOUS
 62
     7
 10
6.8852708058123957
 20
163.39834874504621
 30
0.0
 40
40.159621839365293
 50
328.97567210482163
 51
357.2906139796911
  0
ARC
  5
1F9
  8
DATA
  6
CONTINUOUS
 62
     7
 10
27.077200622083922
 20
151.7184836702956
 30
0.0
 40
16.84105311005932
 50
321.56656126118679
 51
327.62177170814982
  0
LINE
  5
1FA
  8
DATA
  6
CONTINUOUS
 62
     7
 10
9.3799999999999972
 20
141.25
 30
0.0
 11
40.620000000000012
 21
141.25
 31
0.0
  0
LINE
  5
1FB
  8
DATA
  6
CONTINUOUS
 62
     7
 10
12.99999999999998
 20
123.25
 30
0.0
 11
37.000000000000007
 21
123.25
 31
0.0
  0
LINE
  5
1FC
  8
DATA
  6
CONTINUOUS
 62
     7
 10
13.0
 20
123.8
 30
0.0
 11
37.0
 21
123.8
 31
0.0
  0
LINE
  5
1FD
  8
DATA
  6
CONTINUOUS
 62
     7
 10
37.0
 20
122.7
 30
0.0
 11
13.0
 21
122.7
 31
0.0
  0
LINE
  5
1FE
  8
DATA
  6
CONTINUOUS
 62
     7
 10
13.0
 20
123.8
 30
0.0
 11
12.633139534883689
 21
123.8
 31
0.0
  0
LINE
  5
1FF
  8
DATA
  6
CONTINUOUS
 62
     7
 10
13.099999999999991
 20
122.7
 30
0.0
 11
12.64593023255814
 21
122.7
 31
0.0
  0
LINE
  5
200
  8
DATA
  6
CONTINUOUS
 62
     7
 10
37.0
 20
123.8
 30
0.0
 11
37.366860465116282
 21
123.8
 31
0.0
  0
LINE
  5
201
  8
DATA
  6
CONTINUOUS
 62
     7
 10
37.0
 20
122.7
 30
0.0
 11
37.35406976744185
 21
122.7
 31
0.0
  0
LINE
  5
202
  8
DATA
  6
CONTINUOUS
 62
     7
 10
13.0
 20
123.25
 30
0.0
 11
12.633139534883711
 21
123.8
 31
0.0
  0
LINE
  5
203
  8
DATA
  6
CONTINUOUS
 62
     7
 10
13.0
 20
123.25
 30
0.0
 11
12.64593023255814
 21
122.7
 31
0.0
  0
LINE
  5
204
  8
DATA
  6
CONTINUOUS
 62
     7
 10
37.0
 20
123.25
 30
0.0
 11
37.366860465116282
 21
123.8
 31
0.0
  0
LINE
  5
205
  8
DATA
  6
CONTINUOUS
 62
     7
 10
37.35406976744185
 20
122.7
 30
0.0
 11
37.0
 21
123.25
 31
0.0
  0
LINE
  5
206
  8
DATA
  6
CONTINUOUS
 62
     7
 10
12.534883720930241
 20
132.25
 30
0.0
 11
13.099999999999991
 21
133.80000000000001
 31
0.0
  0
LINE
  5
207
  8
DATA
  6
CONTINUOUS
 62
     7
 10
13.099999999999991
 20
133.80000000000001
 30
0.0
 11
9.3799999999999972
 21
140.97999999999999
 31
0.0
  0
LINE
  5
208
  8
DATA
  6
CONTINUOUS
 62
     7
 10
9.3799999999999972
 20
140.97999999999999
 30
0.0
 11
9.3799999999999972
 21
141.25
 31
0.0
  0
LINE
  5
209
  8
DATA
  6
CONTINUOUS
 62
     7
 10
37.465116279069761
 20
132.25
 30
0.0
 11
36.900000000000013
 21
133.80000000000001
 31
0.0
  0
LINE
  5
20A
  8
DATA
  6
CONTINUOUS
 62
     7
 10
36.900000000000013
 20
133.80000000000001
 30
0.0
 11
40.620000000000012
 21
140.97999999999999
 31
0.0
  0
LINE
  5
20B
  8
DATA
  6
CONTINUOUS
 62
     7
 10
40.620000000000012
 20
140.97999999999999
 30
0.0
 11
40.620000000000012
 21
141.25
 31
0.0
  0
LINE
  5
20C
  8
DATA
  6
CONTINUOUS
 62
     7
 10
13.099999999999991
 20
133.80000000000001
 30
0.0
 11
36.900000000000013
 21
133.80000000000001
 31
0.0
  0
LINE
  5
20D
  8
DATA
  6
CONTINUOUS
 62
     7
 10
12.534883720930241
 20
132.25
 30
0.0
 11
37.465116279069768
 21
132.25
 31
0.0
  0
LINE
  5
20E
  8
DATA
  6
CONTINUOUS
 62
     7
 10
12.29693593314763
 20
135.34999999999999
 30
0.0
 11
37.703064066852392
 21
135.34999999999999
 31
0.0
  0
LINE
  5
20F
  8
DATA
  6
CONTINUOUS
 62
     7
 10
9.3799999999999972
 20
140.97999999999999
 30
0.0
 11
40.620000000000012
 21
140.97999999999999
 31
0.0
  0
ARC
  5
210
  8
DATA
  6
CONTINUOUS
 62
     7
 10
25.865018719221499
 20
162.20918142147841
 30
0.0
 40
31.374700220584291
 50
102.8291978061915
 51
110.2610950098141
  0
ARC
  5
211
  8
DATA
  6
CONTINUOUS
 62
     7
 10
24.134981280778511
 20
162.20918142147841
 30
0.0
 40
31.374700220584291
 50
69.738904990185844
 51
77.170802193807788
  0
ARC
  5
212
  8
DATA
  6
CONTINUOUS
 62
     7
 10
22.895228020774329
 20
175.24999999999861
 30
0.0
 40
18.000000000001361
 50
90.0
 51
102.82919780619061
  0
ARC
  5
213
  8
DATA
  6
CONTINUOUS
 62
     7
 10
27.104771979225831
 20
175.2499999999996
 30
0.0
 40
18.000000000000341
 50
77.170802193808015
 51
90.0
  0
LINE
  5
214
  8
DATA
  6
CONTINUOUS
 62
     7
 10
1.5
 20
165.5
 30
0.0
 11
48.5
 21
165.5
 31
0.0
  0
LINE
  5
215
  8
DATA
  6
CONTINUOUS
 62
     7
 10
48.5
 20
163.0
 30
0.0
 11
1.5
 21
163.0
 31
0.0
  0
LINE
  5
216
  8
DATA
  6
CONTINUOUS
 62
     7
 10
1.5
 20
165.5
 30
0.0
 11
2.1799999999999922
 21
167.0
 31
0.0
  0
LINE
  5
217
  8
DATA
  6
CONTINUOUS
 62
     7
 10
48.5
 20
165.5
 30
0.0
 11
47.82
 21
167.0
 31
0.0
  0
LINE
  5
218
  8
DATA
  6
CONTINUOUS
 62
     7
 10
1.5
 20
163.0
 30
0.0
 11
2.1799999999999922
 21
161.5
 31
0.0
  0
LINE
  5
219
  8
DATA
  6
CONTINUOUS
 62
     7
 10
48.5
 20
163.0
 30
0.0
 11
47.82
 21
161.5
 31
0.0
  0
LINE
  5
21A
  8
DATA
  6
CONTINUOUS
 62
     7
 10
26.350000000000009
 20
88.349999999999994
 30
0.0
 11
26.350000000000009
 21
78.149999999999622
 31
0.0
  0
LINE
  5
21B
  8
DATA
  6
CONTINUOUS
 62
     7
 10
23.650000000000009
 20
78.150000000000006
 30
0.0
 11
23.650000000000009
 21
88.349999999999994
 31
0.0
  0
ARC
  5
21C
  8
DATA
  6
CONTINUOUS
 62
     7
 10
25.000000000000011
 20
87.78749999999998
 30
0.0
 40
1.462500000000003
 50
22.61986494804129
 51
157.38013505195889
  0
ARC
  5
21D
  8
DATA
  6
CONTINUOUS
 62
     7
 10
25.000000000000011
 20
78.71250000000002
 30
0.0
 40
1.462500000000015
 50
202.619864948041
 51
337.38013505195869
  0
LINE
  5
21E
  8
DATA
  6
CONTINUOUS
 62
     7
 10
23.650000000000009
 20
88.063179851750945
 30
0.0
 11
26.350000000000009
 21
88.063179851750945
 31
0.0
  0
LINE
  5
21F
  8
DATA
  6
CONTINUOUS
 62
     7
 10
23.650000000000009
 20
84.063179851750931
 30
0.0
 11
26.350000000000009
 21
84.063179851750931
 31
0.0
  0
LINE
  5
220
  8
DATA
  6
CONTINUOUS
 62
     7
 10
23.650000000000009
 20
86.063179851750945
 30
0.0
 11
26.350000000000009
 21
86.063179851750945
 31
0.0
  0
LINE
  5
221
  8
DATA
  6
CONTINUOUS
 62
     7
 10
23.650000000000009
 20
87.063179851750945
 30
0.0
 11
26.350000000000009
 21
87.063179851750945
 31
0.0
  0
LINE
  5
222
  8
DATA
  6
CONTINUOUS
 62
     7
 10
26.350000000000009
 20
85.063179851750917
 30
0.0
 11
23.650000000000009
 21
85.063179851750917
 31
0.0
  0
LINE
  5
223
  8
DATA
  6
CONTINUOUS
 62
     7
 10
28.000000000000011
 20
88.534972243167104
 30
0.0
 11
28.000000000000011
 21
77.901278059772835
 31
0.0
  0
LINE
  5
224
  8
DATA
  6
CONTINUOUS
 62
     7
 10
22.000000000000011
 20
77.901278059772821
 30
0.0
 11
22.000000000000011
 21
88.534972243167104
 31
0.0
  0
ARC
  5
225
  8
DATA
  6
CONTINUOUS
 62
     7
 10
25.000000000000011
 20
87.347727272727255
 30
0.0
 40
3.552272727272737
 50
49.893028965702399
 51
130.1069710342976
  0
LINE
  5
226
  8
DATA
  6
CONTINUOUS
 62
     7
 10
24.968911086751969
 20
75.499999999999929
 30
0.0
 11
25.031088913248102
 21
75.499999999999929
 31
0.0
  0
ARC
  5
227
  8
DATA
  6
CONTINUOUS
 62
     7
 10
25.000000000000028
 20
78.946152422706575
 30
0.0
 40
3.4462926516843431
 50
226.2571427580751
 51
313.7428572419243
  0
TEXT
  5
228
  8
DATA
 62
     7
 10
19.60991089765637
 20
85.318666770461334
 30
0.0
 40
2.4694444444444441
  1
0
 41
0.7
 11
19.60991089765637
 21
87.788111214905783
 31
0.0
 73
     3
  0
TEXT
  5
229
  8
DATA
 62
     7
 10
18.204806515080119
 20
81.556090198943352
 30
0.0
 40
2.1717881944444439
  1
dB
 41
0.7
 11
18.204806515080119
 21
83.727878393387797
 31
0.0
 73
     3
  0
TEXT
  5
22A
  8
DATA
 62
     7
 10
16.631928474882809
 20
77.982258992249015
 30
0.0
 40
2.1717881944444439
  1
-14
 41
0.7
 11
16.631928474882809
 21
80.154047186693475
 31
0.0
 73
     3
  0
LINE
  5
22B
  8
DATA
  6
CONTINUOUS
 62
     7
 10
28.800000000000001
 20
87.800000000000026
 30
0.0
 11
32.0
 21
87.800000000000026
 31
0.0
  0
LINE
  5
22C
  8
DATA
  6
CONTINUOUS
 62
     7
 10
28.800000000000001
 20
81.34999999999998
 30
0.0
 11
32.0
 21
81.34999999999998
 31
0.0
  0
LINE
  5
22D
  8
DATA
  6
CONTINUOUS
 62
     7
 10
29.5
 20
85.072841118975816
 30
0.0
 11
32.0
 21
85.072841118975816
 31
0.0
  0
LINE
  5
22E
  8
DATA
  6
CONTINUOUS
 62
     7
 10
29.5
 20
85.072841118975816
 30
0.0
 11
28.800000000000001
 21
83.86040555367758
 31
0.0
  0
LINE
  5
22F
  8
DATA
  6
CONTINUOUS
 62
     7
 10
28.800000000000001
 20
77.650000000000006
 30
0.0
 11
30.849999999999991
 21
78.833568051838753
 31
0.0
  0
LINE
  5
230
  8
DATA
  6
CONTINUOUS
 62
     7
 10
30.849999999999991
 20
78.833568051838753
 30
0.0
 11
32.0
 21
78.833568051838753
 31
0.0
  0
ARC
  5
231
  8
DATA
  6
CONTINUOUS
 62
     7
 10
24.000000000000011
 20
88.534972243167104
 30
0.0
 40
2.0000000000000031
 50
130.1069710342976
 51
180.0
  0
ARC
  5
232
  8
DATA
  6
CONTINUOUS
 62
     7
 10
26.0
 20
88.534972243167104
 30
0.0
 40
2.0000000000000142
 50
0.0
 51
49.893028965702051
  0
ARC
  5
233
  8
DATA
  6
CONTINUOUS
 62
     7
 10
24.000000000000011
 20
77.901278059772821
 30
0.0
 40
2.0
 50
180.0
 51
226.2571427580751
  0
ARC
  5
234
  8
DATA
  6
CONTINUOUS
 62
     7
 10
26.0
 20
77.901278059772835
 30
0.0
 40
2.0000000000000151
 50
313.74285724192453
 51
0.0
  0
TEXT
  5
235
  8
DATA
 62
     7
 10
170.213242020336
 20
125.30125265988799
 30
0.0
 40
5.5562500000000004
  1
AKG
 41
0.7
 11
170.213242020336
 21
130.85750265988801
 31
0.0
 73
     3
  0
TEXT
  5
236
  8
DATA
 62
     7
 10
166.37393441822681
 20
117.26939295312719
 30
0.0
 40
3.7041666666666648
  1
C 535 EB
 41
0.7
 11
166.37393441822681
 21
120.9735596197939
 31
0.0
 73
     3
  0
CIRCLE
  5
237
  8
DATA
  6
CONTINUOUS
 62
     7
 10
175.0
 20
23.25
 30
0.0
 40
2.5
  0
LINE
  5
238
  8
DATA
  6
CONTINUOUS
 62
     7
 10
175.0
 20
21.83578643762689
 30
0.0
 11
175.0
 21
24.664213562373099
 31
0.0
  0
LINE
  5
239
  8
DATA
  6
CONTINUOUS
 62
     7
 10
173.58578643762681
 20
23.25
 30
0.0
 11
176.41421356237311
 21
23.25
 31
0.0
  0
CIRCLE
  5
23A
  8
DATA
  6
CONTINUOUS
 62
     7
 10
25.0
 20
231.25
 30
0.0
 40
23.5
  0
CIRCLE
  5
23B
  8
DATA
  6
CONTINUOUS
 62
     7
 10
25.0
 20
231.25
 30
0.0
 40
22.0
  0
CIRCLE
  5
23C
  8
DATA
  6
CONTINUOUS
 62
     7
 10
25.0
 20
-31.25
 30
0.0
 40
23.5
  0
CIRCLE
  5
23D
  8
DATA
  6
CONTINUOUS
 62
     7
 10
25.0
 20
-31.25
 30
0.0
 40
22.0
  0
CIRCLE
  5
23E
  8
DATA
  6
CONTINUOUS
 62
     7
 10
25.0
 20
-31.25
 30
0.0
 40
11.0
  0
ARC
  5
23F
  8
DATA
  6
CONTINUOUS
 62
     7
 10
25.00000000000005
 20
-31.250000000000089
 30
0.0
 40
7.9999999999999636
 50
235.67937350605041
 51
221.46749489790261
  0
CIRCLE
  5
240
  8
DATA
  6
CONTINUOUS
 62
     7
 10
25.0
 20
-31.25
 30
0.0
 40
12.5
  0
CIRCLE
  5
241
  8
DATA
  6
CONTINUOUS
 62
     7
 10
25.0
 20
-31.25
 30
0.0
 40
15.6
  0
LINE
  5
242
  8
DATA
  6
CONTINUOUS
 62
     7
 10
14.79999999999999
 20
6.25
 30
0.0
 11
13.99058823529411
 21
7.0594117647058852
 31
0.0
  0
LINE
  5
243
  8
DATA
  6
CONTINUOUS
 62
     7
 10
35.199999999999989
 20
6.25
 30
0.0
 11
36.009411764705881
 21
7.0594117647058852
 31
0.0
  0
LINE
  5
244
  8
DATA
  6
CONTINUOUS
 62
     7
 10
89.799999999999983
 20
6.25
 30
0.0
 11
110.2
 21
6.25
 31
0.0
  0
LINE
  5
245
  8
DATA
  6
CONTINUOUS
 62
     7
 10
88.990588235294112
 20
7.0594117647058852
 30
0.0
 11
87.645930232558115
 21
122.7
 31
0.0
  0
LINE
  5
246
  8
DATA
  6
CONTINUOUS
 62
     7
 10
87.633139534883711
 20
123.7999999999999
 30
0.0
 11
87.534883720930225
 21
132.25
 31
0.0
  0
LINE
  5
247
  8
DATA
  6
CONTINUOUS
 62
     7
 10
111.0094117647058
 20
7.0594117647058852
 30
0.0
 11
112.3540697674419
 21
122.7
 31
0.0
  0
LINE
  5
248
  8
DATA
  6
CONTINUOUS
 62
     7
 10
112.3668604651163
 20
123.8
 30
0.0
 11
112.4651162790698
 21
132.25
 31
0.0
  0
LINE
  5
249
  8
DATA
  6
CONTINUOUS
 62
     7
 10
76.5
 20
164.25
 30
0.0
 11
123.5
 21
164.25
 31
0.0
  0
LINE
  5
24A
  8
DATA
  6
CONTINUOUS
 62
     7
 10
77.179999999999978
 20
167.0
 30
0.0
 11
122.81999999999999
 21
167.0
 31
0.0
  0
LINE
  5
24B
  8
DATA
  6
CONTINUOUS
 62
     7
 10
122.81999999999999
 20
161.5
 30
0.0
 11
77.179999999999978
 21
161.5
 31
0.0
  0
LINE
  5
24C
  8
DATA
  6
CONTINUOUS
 62
     7
 10
76.5
 20
163.0
 30
0.0
 11
76.5
 21
165.5
 31
0.0
  0
LINE
  5
24D
  8
DATA
  6
CONTINUOUS
 62
     7
 10
123.5
 20
163.0
 30
0.0
 11
123.5
 21
165.5
 31
0.0
  0
ARC
  5
24E
  8
DATA
  6
CONTINUOUS
 62
     7
 10
118.1147291941876
 20
165.10165125495379
 30
0.0
 40
40.159621839365279
 50
148.9756721048216
 51
177.29061397969099
  0
ARC
  5
24F
  8
DATA
  6
CONTINUOUS
 62
     7
 10
97.922799377916107
 20
176.7815163297044
 30
0.0
 40
16.84105311005931
 50
118.06322544678289
 51
147.62177170814971
  0
ARC
  5
250
  8
DATA
  6
CONTINUOUS
 62
     7
 10
81.885270805812382
 20
165.10165125495379
 30
0.0
 40
40.159621839365293
 50
2.709386020308961
 51
31.024327895178409
  0
ARC
  5
251
  8
DATA
  6
CONTINUOUS
 62
     7
 10
102.07720062208389
 20
176.7815163297044
 30
0.0
 40
16.84105311005932
 50
32.37822829185022
 51
61.936774553216743
  0
LINE
  5
252
  8
DATA
  6
CONTINUOUS
 62
     7
 10
97.895228020774312
 20
193.25
 30
0.0
 11
102.1047719792258
 21
193.25
 31
0.0
  0
ARC
  5
253
  8
DATA
  6
CONTINUOUS
 62
     7
 10
118.1147291941876
 20
163.39834874504621
 30
0.0
 40
40.159621839365279
 50
182.7093860203089
 51
211.0243278951784
  0
ARC
  5
254
  8
DATA
  6
CONTINUOUS
 62
     7
 10
97.922799377916107
 20
151.7184836702956
 30
0.0
 40
16.84105311005932
 50
212.37822829185021
 51
218.43343873881329
  0
ARC
  5
255
  8
DATA
  6
CONTINUOUS
 62
     7
 10
81.885270805812382
 20
163.39834874504621
 30
0.0
 40
40.159621839365293
 50
328.97567210482163
 51
357.2906139796911
  0
ARC
  5
256
  8
DATA
  6
CONTINUOUS
 62
     7
 10
102.07720062208389
 20
151.7184836702956
 30
0.0
 40
16.84105311005932
 50
321.56656126118679
 51
327.62177170814982
  0
LINE
  5
257
  8
DATA
  6
CONTINUOUS
 62
     7
 10
84.379999999999981
 20
141.25
 30
0.0
 11
115.62
 21
141.25
 31
0.0
  0
LINE
  5
258
  8
DATA
  6
CONTINUOUS
 62
     7
 10
87.999999999999986
 20
123.25
 30
0.0
 11
112.0
 21
123.25
 31
0.0
  0
LINE
  5
259
  8
DATA
  6
CONTINUOUS
 62
     7
 10
88.0
 20
123.8
 30
0.0
 11
112.0
 21
123.8
 31
0.0
  0
LINE
  5
25A
  8
DATA
  6
CONTINUOUS
 62
     7
 10
112.0
 20
122.7
 30
0.0
 11
88.0
 21
122.7
 31
0.0
  0
LINE
  5
25B
  8
DATA
  6
CONTINUOUS
 62
     7
 10
88.0
 20
123.8
 30
0.0
 11
87.633139534883711
 21
123.8
 31
0.0
  0
LINE
  5
25C
  8
DATA
  6
CONTINUOUS
 62
     7
 10
88.09999999999998
 20
122.7
 30
0.0
 11
87.645930232558115
 21
122.7
 31
0.0
  0
LINE
  5
25D
  8
DATA
  6
CONTINUOUS
 62
     7
 10
112.0
 20
123.8
 30
0.0
 11
112.3668604651163
 21
123.8
 31
0.0
  0
LINE
  5
25E
  8
DATA
  6
CONTINUOUS
 62
     7
 10
112.0
 20
122.7
 30
0.0
 11
112.3540697674418
 21
122.7
 31
0.0
  0
LINE
  5
25F
  8
DATA
  6
CONTINUOUS
 62
     7
 10
88.0
 20
123.25
 30
0.0
 11
87.633139534883711
 21
123.8
 31
0.0
  0
LINE
  5
260
  8
DATA
  6
CONTINUOUS
 62
     7
 10
88.0
 20
123.25
 30
0.0
 11
87.645930232558115
 21
122.7
 31
0.0
  0
LINE
  5
261
  8
DATA
  6
CONTINUOUS
 62
     7
 10
112.0
 20
123.25
 30
0.0
 11
112.3668604651163
 21
123.8
 31
0.0
  0
LINE
  5
262
  8
DATA
  6
CONTINUOUS
 62
     7
 10
112.3540697674418
 20
122.7
 30
0.0
 11
112.0
 21
123.25
 31
0.0
  0
LINE
  5
263
  8
DATA
  6
CONTINUOUS
 62
     7
 10
87.534883720930225
 20
132.25
 30
0.0
 11
88.09999999999998
 21
133.80000000000001
 31
0.0
  0
LINE
  5
264
  8
DATA
  6
CONTINUOUS
 62
     7
 10
88.09999999999998
 20
133.80000000000001
 30
0.0
 11
84.379999999999981
 21
140.97999999999999
 31
0.0
  0
LINE
  5
265
  8
DATA
  6
CONTINUOUS
 62
     7
 10
84.379999999999981
 20
140.97999999999999
 30
0.0
 11
84.379999999999981
 21
141.25
 31
0.0
  0
LINE
  5
266
  8
DATA
  6
CONTINUOUS
 62
     7
 10
112.4651162790697
 20
132.25
 30
0.0
 11
111.90000000000001
 21
133.80000000000001
 31
0.0
  0
LINE
  5
267
  8
DATA
  6
CONTINUOUS
 62
     7
 10
111.90000000000001
 20
133.80000000000001
 30
0.0
 11
115.62
 21
140.97999999999999
 31
0.0
  0
LINE
  5
268
  8
DATA
  6
CONTINUOUS
 62
     7
 10
115.62
 20
140.97999999999999
 30
0.0
 11
115.62
 21
141.25
 31
0.0
  0
LINE
  5
269
  8
DATA
  6
CONTINUOUS
 62
     7
 10
88.09999999999998
 20
133.80000000000001
 30
0.0
 11
111.90000000000001
 21
133.80000000000001
 31
0.0
  0
LINE
  5
26A
  8
DATA
  6
CONTINUOUS
 62
     7
 10
87.534883720930225
 20
132.25
 30
0.0
 11
112.4651162790698
 21
132.25
 31
0.0
  0
LINE
  5
26B
  8
DATA
  6
CONTINUOUS
 62
     7
 10
87.296935933147608
 20
135.34999999999999
 30
0.0
 11
112.70306406685241
 21
135.34999999999999
 31
0.0
  0
LINE
  5
26C
  8
DATA
  6
CONTINUOUS
 62
     7
 10
84.379999999999981
 20
140.97999999999999
 30
0.0
 11
115.62
 21
140.97999999999999
 31
0.0
  0
ARC
  5
26D
  8
DATA
  6
CONTINUOUS
 62
     7
 10
100.8650187192215
 20
162.20918142147841
 30
0.0
 40
31.374700220584291
 50
102.8291978061915
 51
110.2610950098141
  0
ARC
  5
26E
  8
DATA
  6
CONTINUOUS
 62
     7
 10
99.134981280778504
 20
162.20918142147841
 30
0.0
 40
31.374700220584291
 50
69.738904990185844
 51
77.170802193807788
  0
ARC
  5
26F
  8
DATA
  6
CONTINUOUS
 62
     7
 10
97.895228020774312
 20
175.24999999999861
 30
0.0
 40
18.000000000001361
 50
90.0
 51
102.82919780619061
  0
ARC
  5
270
  8
DATA
  6
CONTINUOUS
 62
     7
 10
102.1047719792258
 20
175.2499999999996
 30
0.0
 40
18.000000000000341
 50
77.170802193808015
 51
90.0
  0
LINE
  5
271
  8
DATA
  6
CONTINUOUS
 62
     7
 10
76.5
 20
165.5
 30
0.0
 11
123.5
 21
165.5
 31
0.0
  0
LINE
  5
272
  8
DATA
  6
CONTINUOUS
 62
     7
 10
123.5
 20
163.0
 30
0.0
 11
76.5
 21
163.0
 31
0.0
  0
LINE
  5
273
  8
DATA
  6
CONTINUOUS
 62
     7
 10
76.5
 20
165.5
 30
0.0
 11
77.179999999999978
 21
167.0
 31
0.0
  0
LINE
  5
274
  8
DATA
  6
CONTINUOUS
 62
     7
 10
123.5
 20
165.5
 30
0.0
 11
122.81999999999999
 21
167.0
 31
0.0
  0
LINE
  5
275
  8
DATA
  6
CONTINUOUS
 62
     7
 10
76.5
 20
163.0
 30
0.0
 11
77.179999999999978
 21
161.5
 31
0.0
  0
LINE
  5
276
  8
DATA
  6
CONTINUOUS
 62
     7
 10
123.5
 20
163.0
 30
0.0
 11
122.81999999999999
 21
161.5
 31
0.0
  0
LINE
  5
277
  8
DATA
  6
CONTINUOUS
 62
     7
 10
89.799999999999983
 20
6.25
 30
0.0
 11
88.990588235294112
 21
7.0594117647058852
 31
0.0
  0
LINE
  5
278
  8
DATA
  6
CONTINUOUS
 62
     7
 10
110.2
 20
6.25
 30
0.0
 11
111.0094117647058
 21
7.0594117647058852
 31
0.0
  0
LINE
  5
279
  8
DATA
  6
CONTINUOUS
 62
     7
 10
164.80000000000001
 20
6.25
 30
0.0
 11
185.19999999999999
 21
6.25
 31
0.0
  0
LINE
  5
27A
  8
DATA
  6
CONTINUOUS
 62
     7
 10
163.9905882352941
 20
7.0594117647058852
 30
0.0
 11
162.6459302325581
 21
122.7
 31
0.0
  0
LINE
  5
27B
  8
DATA
  6
CONTINUOUS
 62
     7
 10
162.6331395348837
 20
123.7999999999999
 30
0.0
 11
162.5348837209302
 21
132.25
 31
0.0
  0
LINE
  5
27C
  8
DATA
  6
CONTINUOUS
 62
     7
 10
186.00941176470579
 20
7.0594117647058852
 30
0.0
 11
187.35406976744181
 21
122.7
 31
0.0
  0
LINE
  5
27D
  8
DATA
  6
CONTINUOUS
 62
     7
 10
187.3668604651163
 20
123.8
 30
0.0
 11
187.46511627906969
 21
132.25
 31
0.0
  0
LINE
  5
27E
  8
DATA
  6
CONTINUOUS
 62
     7
 10
151.5
 20
164.25
 30
0.0
 11
198.5
 21
164.25
 31
0.0
  0
LINE
  5
27F
  8
DATA
  6
CONTINUOUS
 62
     7
 10
152.18000000000001
 20
167.0
 30
0.0
 11
197.81999999999999
 21
167.0
 31
0.0
  0
LINE
  5
280
  8
DATA
  6
CONTINUOUS
 62
     7
 10
197.81999999999999
 20
161.5
 30
0.0
 11
152.18000000000001
 21
161.5
 31
0.0
  0
LINE
  5
281
  8
DATA
  6
CONTINUOUS
 62
     7
 10
151.5
 20
163.0
 30
0.0
 11
151.5
 21
165.5
 31
0.0
  0
LINE
  5
282
  8
DATA
  6
CONTINUOUS
 62
     7
 10
198.5
 20
163.0
 30
0.0
 11
198.5
 21
165.5
 31
0.0
  0
ARC
  5
283
  8
DATA
  6
CONTINUOUS
 62
     7
 10
193.11472919418759
 20
165.10165125495379
 30
0.0
 40
40.159621839365279
 50
148.9756721048216
 51
177.29061397969099
  0
ARC
  5
284
  8
DATA
  6
CONTINUOUS
 62
     7
 10
172.92279937791611
 20
176.7815163297044
 30
0.0
 40
16.84105311005931
 50
118.06322544678289
 51
147.62177170814971
  0
ARC
  5
285
  8
DATA
  6
CONTINUOUS
 62
     7
 10
156.88527080581241
 20
165.10165125495379
 30
0.0
 40
40.159621839365293
 50
2.709386020308961
 51
31.024327895178409
  0
ARC
  5
286
  8
DATA
  6
CONTINUOUS
 62
     7
 10
177.07720062208389
 20
176.7815163297044
 30
0.0
 40
16.84105311005932
 50
32.37822829185022
 51
61.936774553216743
  0
LINE
  5
287
  8
DATA
  6
CONTINUOUS
 62
     7
 10
172.89522802077431
 20
193.25
 30
0.0
 11
177.1047719792258
 21
193.25
 31
0.0
  0
ARC
  5
288
  8
DATA
  6
CONTINUOUS
 62
     7
 10
193.11472919418759
 20
163.39834874504621
 30
0.0
 40
40.159621839365279
 50
182.7093860203089
 51
211.0243278951784
  0
ARC
  5
289
  8
DATA
  6
CONTINUOUS
 62
     7
 10
172.92279937791611
 20
151.7184836702956
 30
0.0
 40
16.84105311005932
 50
212.37822829185021
 51
218.43343873881329
  0
ARC
  5
28A
  8
DATA
  6
CONTINUOUS
 62
     7
 10
156.88527080581241
 20
163.39834874504621
 30
0.0
 40
40.159621839365293
 50
328.97567210482163
 51
357.2906139796911
  0
ARC
  5
28B
  8
DATA
  6
CONTINUOUS
 62
     7
 10
177.07720062208389
 20
151.7184836702956
 30
0.0
 40
16.841053110059331
 50
321.56656126118679
 51
327.62177170814982
  0
LINE
  5
28C
  8
DATA
  6
CONTINUOUS
 62
     7
 10
159.38
 20
141.25
 30
0.0
 11
190.62
 21
141.25
 31
0.0
  0
LINE
  5
28D
  8
DATA
  6
CONTINUOUS
 62
     7
 10
163.0
 20
123.25
 30
0.0
 11
187.0
 21
123.25
 31
0.0
  0
LINE
  5
28E
  8
DATA
  6
CONTINUOUS
 62
     7
 10
163.0
 20
123.8
 30
0.0
 11
187.0
 21
123.8
 31
0.0
  0
LINE
  5
28F
  8
DATA
  6
CONTINUOUS
 62
     7
 10
187.0
 20
122.7
 30
0.0
 11
163.0
 21
122.7
 31
0.0
  0
LINE
  5
290
  8
DATA
  6
CONTINUOUS
 62
     7
 10
163.0
 20
123.8
 30
0.0
 11
162.6331395348837
 21
123.8
 31
0.0
  0
LINE
  5
291
  8
DATA
  6
CONTINUOUS
 62
     7
 10
163.09999999999999
 20
122.7
 30
0.0
 11
162.6459302325581
 21
122.7
 31
0.0
  0
LINE
  5
292
  8
DATA
  6
CONTINUOUS
 62
     7
 10
187.0
 20
123.8
 30
0.0
 11
187.3668604651163
 21
123.8
 31
0.0
  0
LINE
  5
293
  8
DATA
  6
CONTINUOUS
 62
     7
 10
187.0
 20
122.7
 30
0.0
 11
187.35406976744181
 21
122.7
 31
0.0
  0
LINE
  5
294
  8
DATA
  6
CONTINUOUS
 62
     7
 10
163.0
 20
123.25
 30
0.0
 11
162.6331395348837
 21
123.8
 31
0.0
  0
LINE
  5
295
  8
DATA
  6
CONTINUOUS
 62
     7
 10
163.0
 20
123.25
 30
0.0
 11
162.6459302325581
 21
122.7
 31
0.0
  0
LINE
  5
296
  8
DATA
  6
CONTINUOUS
 62
     7
 10
187.0
 20
123.25
 30
0.0
 11
187.3668604651163
 21
123.8
 31
0.0
  0
LINE
  5
297
  8
DATA
  6
CONTINUOUS
 62
     7
 10
187.35406976744181
 20
122.7
 30
0.0
 11
187.0
 21
123.25
 31
0.0
  0
LINE
  5
298
  8
DATA
  6
CONTINUOUS
 62
     7
 10
162.5348837209302
 20
132.25
 30
0.0
 11
163.09999999999999
 21
133.80000000000001
 31
0.0
  0
LINE
  5
299
  8
DATA
  6
CONTINUOUS
 62
     7
 10
163.09999999999999
 20
133.80000000000001
 30
0.0
 11
159.38
 21
140.97999999999999
 31
0.0
  0
LINE
  5
29A
  8
DATA
  6
CONTINUOUS
 62
     7
 10
159.38
 20
140.97999999999999
 30
0.0
 11
159.38
 21
141.25
 31
0.0
  0
LINE
  5
29B
  8
DATA
  6
CONTINUOUS
 62
     7
 10
187.46511627906969
 20
132.25
 30
0.0
 11
186.90000000000001
 21
133.80000000000001
 31
0.0
  0
LINE
  5
29C
  8
DATA
  6
CONTINUOUS
 62
     7
 10
186.90000000000001
 20
133.80000000000001
 30
0.0
 11
190.62
 21
140.97999999999999
 31
0.0
  0
LINE
  5
29D
  8
DATA
  6
CONTINUOUS
 62
     7
 10
190.62
 20
140.97999999999999
 30
0.0
 11
190.62
 21
141.25
 31
0.0
  0
LINE
  5
29E
  8
DATA
  6
CONTINUOUS
 62
     7
 10
163.09999999999999
 20
133.80000000000001
 30
0.0
 11
186.90000000000001
 21
133.80000000000001
 31
0.0
  0
LINE
  5
29F
  8
DATA
  6
CONTINUOUS
 62
     7
 10
162.5348837209302
 20
132.25
 30
0.0
 11
187.46511627906969
 21
132.25
 31
0.0
  0
LINE
  5
2A0
  8
DATA
  6
CONTINUOUS
 62
     7
 10
162.29693593314761
 20
135.34999999999999
 30
0.0
 11
187.70306406685239
 21
135.34999999999999
 31
0.0
  0
LINE
  5
2A1
  8
DATA
  6
CONTINUOUS
 62
     7
 10
159.38
 20
140.97999999999999
 30
0.0
 11
190.62
 21
140.97999999999999
 31
0.0
  0
ARC
  5
2A2
  8
DATA
  6
CONTINUOUS
 62
     7
 10
175.8650187192215
 20
162.20918142147841
 30
0.0
 40
31.374700220584291
 50
102.8291978061915
 51
110.2610950098141
  0
ARC
  5
2A3
  8
DATA
  6
CONTINUOUS
 62
     7
 10
174.1349812807785
 20
162.20918142147841
 30
0.0
 40
31.374700220584291
 50
69.738904990185844
 51
77.170802193807788
  0
ARC
  5
2A4
  8
DATA
  6
CONTINUOUS
 62
     7
 10
172.89522802077431
 20
175.24999999999861
 30
0.0
 40
18.000000000001361
 50
90.0
 51
102.82919780619061
  0
ARC
  5
2A5
  8
DATA
  6
CONTINUOUS
 62
     7
 10
177.1047719792258
 20
175.2499999999996
 30
0.0
 40
18.000000000000341
 50
77.170802193808015
 51
90.0
  0
LINE
  5
2A6
  8
DATA
  6
CONTINUOUS
 62
     7
 10
151.5
 20
165.5
 30
0.0
 11
198.5
 21
165.5
 31
0.0
  0
LINE
  5
2A7
  8
DATA
  6
CONTINUOUS
 62
     7
 10
198.5
 20
163.0
 30
0.0
 11
151.5
 21
163.0
 31
0.0
  0
LINE
  5
2A8
  8
DATA
  6
CONTINUOUS
 62
     7
 10
151.5
 20
165.5
 30
0.0
 11
152.18000000000001
 21
167.0
 31
0.0
  0
LINE
  5
2A9
  8
DATA
  6
CONTINUOUS
 62
     7
 10
198.5
 20
165.5
 30
0.0
 11
197.81999999999999
 21
167.0
 31
0.0
  0
LINE
  5
2AA
  8
DATA
  6
CONTINUOUS
 62
     7
 10
151.5
 20
163.0
 30
0.0
 11
152.18000000000001
 21
161.5
 31
0.0
  0
LINE
  5
2AB
  8
DATA
  6
CONTINUOUS
 62
     7
 10
198.5
 20
163.0
 30
0.0
 11
197.81999999999999
 21
161.5
 31
0.0
  0
LINE
  5
2AC
  8
DATA
  6
CONTINUOUS
 62
     7
 10
164.80000000000001
 20
6.25
 30
0.0
 11
163.9905882352941
 21
7.0594117647058852
 31
0.0
  0
LINE
  5
2AD
  8
DATA
  6
CONTINUOUS
 62
     7
 10
185.19999999999999
 20
6.25
 30
0.0
 11
186.00941176470579
 21
7.0594117647058852
 31
0.0
  0
ENDSEC
  0
EOF
